  0
SECTION
  2
HEADER
  9
$ACADVER
  1
AC1015
  9
$ACADMAINTVER
 70
     6
  9
$DWGCODEPAGE
  3
ANSI_1252
  9
$INSBASE
 10
0.0
 20
0.0
 30
0.0
  9
$EXTMIN
 10
0.0
 20
0.0
 30
0.0
  9
$EXTMAX
 10
11.0
 20
8.5
 30
0.0
  9
$LIMMIN
 10
0.0
 20
0.0
  9
$LIMMAX
 10
11.0
 20
8.5
  9
$ORTHOMODE
 70
     0
  9
$REGENMODE
 70
     1
  9
$FILLMODE
 70
     1
  9
$QTEXTMODE
 70
     0
  9
$MIRRTEXT
 70
     1
  9
$LTSCALE
 40
1.0
  9
$ATTMODE
 70
     1
  9
$TEXTSIZE
 40
0.1666666667
  9
$TRACEWID
 40
0.05
  9
$TEXTSTYLE
  7
Standard
  9
$CLAYER
  8
0
  9
$CELTYPE
  6
ByLayer
  9
$CECOLOR
 62
   256
  9
$CELTSCALE
 40
1.0
  9
$DISPSILH
 70
     0
  9
$DIMSCALE
 40
1.0
  9
$DIMASZ
 40
0.09
  9
$DIMEXO
 40
0.05
  9
$DIMDLI
 40
0.38
  9
$DIMRND
 40
0.0
  9
$DIMDLE
 40
0.0
  9
$DIMEXE
 40
0.0625
  9
$DIMTP
 40
0.0
  9
$DIMTM
 40
0.0
  9
$DIMTXT
 40
0.1666666667
  9
$DIMCEN
 40
0.09
  9
$DIMTSZ
 40
0.0
  9
$DIMTOL
 70
     0
  9
$DIMLIM
 70
     0
  9
$DIMTIH
 70
     1
  9
$DIMTOH
 70
     1
  9
$DIMSE1
 70
     0
  9
$DIMSE2
 70
     0
  9
$DIMTAD
 70
     0
  9
$DIMZIN
 70
     0
  9
$DIMBLK
  1

  9
$DIMASO
 70
     1
  9
$DIMSHO
 70
     1
  9
$DIMPOST
  1

  9
$DIMAPOST
  1

  9
$DIMALT
 70
     0
  9
$DIMALTD
 70
     2
  9
$DIMALTF
 40
25.4
  9
$DIMLFAC
 40
1.0
  9
$DIMTOFL
 70
     0
  9
$DIMTVP
 40
0.0
  9
$DIMTIX
 70
     0
  9
$DIMSOXD
 70
     0
  9
$DIMSAH
 70
     0
  9
$DIMBLK1
  1

  9
$DIMBLK2
  1

  9
$DIMSTYLE
  2
Standard
  9
$DIMCLRD
 70
     0
  9
$DIMCLRE
 70
     0
  9
$DIMCLRT
 70
     0
  9
$DIMTFAC
 40
1.0
  9
$DIMGAP
 40
0.06
  9
$DIMJUST
 70
     0
  9
$DIMSD1
 70
     0
  9
$DIMSD2
 70
     0
  9
$DIMTOLJ
 70
     1
  9
$DIMTZIN
 70
     0
  9
$DIMALTZ
 70
     0
  9
$DIMALTTZ
 70
     0
  9
$DIMUPT
 70
     0
  9
$DIMDEC
 70
     2
  9
$DIMTDEC
 70
     2
  9
$DIMALTU
 70
     2
  9
$DIMALTTD
 70
     2
  9
$DIMTXSTY
  7
Standard
  9
$DIMAUNIT
 70
     0
  9
$DIMADEC
 70
     0
  9
$DIMALTRND
 40
0.0
  9
$DIMAZIN
 70
     0
  9
$DIMDSEP
 70
    46
  9
$DIMATFIT
 70
     3
  9
$DIMFRAC
 70
     0
  9
$DIMLDRBLK
  1

  9
$DIMLUNIT
 70
     2
  9
$DIMLWD
 70
    -2
  9
$DIMLWE
 70
    -2
  9
$DIMTMOVE
 70
     0
  9
$LUNITS
 70
     2
  9
$LUPREC
 70
     2
  9
$SKETCHINC
 40
0.1
  9
$FILLETRAD
 40
0.5
  9
$AUNITS
 70
     0
  9
$AUPREC
 70
     0
  9
$MENU
  1
.
  9
$ELEVATION
 40
0.0
  9
$PELEVATION
 40
0.0
  9
$THICKNESS
 40
0.0
  9
$LIMCHECK
 70
     0
  9
$CHAMFERA
 40
0.0
  9
$CHAMFERB
 40
0.0
  9
$CHAMFERC
 40
0.0
  9
$CHAMFERD
 40
0.0
  9
$SKPOLY
 70
     0
  9
$TDCREATE
 40
2456890.634888414
  9
$TDUCREATE
 40
2456890.843221748
  9
$TDUPDATE
 40
2456890.634889641
  9
$TDUUPDATE
 40
2456890.843222974
  9
$TDINDWG
 40
0.0000000116
  9
$TDUSRTIMER
 40
0.0000000116
  9
$USRTIMER
 70
     1
  9
$ANGBASE
 50
0.0
  9
$ANGDIR
 70
     0
  9
$PDMODE
 70
     0
  9
$PDSIZE
 40
-1.0
  9
$PLINEWID
 40
0.0
  9
$SPLFRAME
 70
     0
  9
$SPLINETYPE
 70
     6
  9
$SPLINESEGS
 70
     8
  9
$HANDSEED
  5
72A
  9
$SURFTAB1
 70
     6
  9
$SURFTAB2
 70
     6
  9
$SURFTYPE
 70
     6
  9
$SURFU
 70
     6
  9
$SURFV
 70
     6
  9
$UCSBASE
  2

  9
$UCSNAME
  2

  9
$UCSORG
 10
0.0
 20
0.0
 30
0.0
  9
$UCSXDIR
 10
1.0
 20
0.0
 30
0.0
  9
$UCSYDIR
 10
0.0
 20
1.0
 30
0.0
  9
$UCSORTHOREF
  2

  9
$UCSORTHOVIEW
 70
     0
  9
$UCSORGTOP
 10
0.0
 20
0.0
 30
0.0
  9
$UCSORGBOTTOM
 10
0.0
 20
0.0
 30
0.0
  9
$UCSORGLEFT
 10
0.0
 20
0.0
 30
0.0
  9
$UCSORGRIGHT
 10
0.0
 20
0.0
 30
0.0
  9
$UCSORGFRONT
 10
0.0
 20
0.0
 30
0.0
  9
$UCSORGBACK
 10
0.0
 20
0.0
 30
0.0
  9
$PUCSBASE
  2

  9
$PUCSNAME
  2

  9
$PUCSORG
 10
0.0
 20
0.0
 30
0.0
  9
$PUCSXDIR
 10
1.0
 20
0.0
 30
0.0
  9
$PUCSYDIR
 10
0.0
 20
1.0
 30
0.0
  9
$PUCSORTHOREF
  2

  9
$PUCSORTHOVIEW
 70
     0
  9
$PUCSORGTOP
 10
0.0
 20
0.0
 30
0.0
  9
$PUCSORGBOTTOM
 10
0.0
 20
0.0
 30
0.0
  9
$PUCSORGLEFT
 10
0.0
 20
0.0
 30
0.0
  9
$PUCSORGRIGHT
 10
0.0
 20
0.0
 30
0.0
  9
$PUCSORGFRONT
 10
0.0
 20
0.0
 30
0.0
  9
$PUCSORGBACK
 10
0.0
 20
0.0
 30
0.0
  9
$USERI1
 70
     0
  9
$USERI2
 70
     0
  9
$USERI3
 70
     0
  9
$USERI4
 70
     0
  9
$USERI5
 70
     0
  9
$USERR1
 40
0.0
  9
$USERR2
 40
0.0
  9
$USERR3
 40
0.0
  9
$USERR4
 40
0.0
  9
$USERR5
 40
0.0
  9
$WORLDVIEW
 70
     1
  9
$SHADEDGE
 70
     3
  9
$SHADEDIF
 70
    70
  9
$TILEMODE
 70
     1
  9
$MAXACTVP
 70
    64
  9
$PINSBASE
 10
0.0
 20
0.0
 30
0.0
  9
$PLIMCHECK
 70
     0
  9
$PEXTMIN
 10
1.0000000000E+20
 20
1.0000000000E+20
 30
1.0000000000E+20
  9
$PEXTMAX
 10
-1.0000000000E+20
 20
-1.0000000000E+20
 30
-1.0000000000E+20
  9
$PLIMMIN
 10
0.0
 20
0.0
  9
$PLIMMAX
 10
12.0
 20
9.0
  9
$UNITMODE
 70
     0
  9
$VISRETAIN
 70
     1
  9
$PLINEGEN
 70
     0
  9
$PSLTSCALE
 70
     1
  9
$TREEDEPTH
 70
  3020
  9
$CMLSTYLE
  2
Standard
  9
$CMLJUST
 70
     0
  9
$CMLSCALE
 40
1.0
  9
$PROXYGRAPHICS
 70
     1
  9
$MEASUREMENT
 70
     0
  9
$CELWEIGHT
370
    -1
  9
$ENDCAPS
280
     0
  9
$JOINSTYLE
280
     0
  9
$LWDISPLAY
290
     1
  9
$INSUNITS
 70
     1
  9
$HYPERLINKBASE
  1

  9
$STYLESHEET
  1

  9
$XEDIT
290
     1
  9
$CEPSNTYPE
380
     0
  9
$PSTYLEMODE
290
     1
  9
$FINGERPRINTGUID
  2
{8DFD3B96-4E64-440B-BECD-B9889E3CD30F}
  9
$VERSIONGUID
  2
{FAEB1C32-E019-11D5-929B-00C0DF256EC4}
  9
$EXTNAMES
290
     1
  9
$PSVPSCALE
 40
0.0
  9
$OLESTARTUP
290
     0
  0
ENDSEC
  0
SECTION
  2
CLASSES
  0
CLASS
  1
ACDBDICTIONARYWDFLT
  2
AcDbDictionaryWithDefault
  3
ObjectDBX Classes
 90
        0
280
     0
281
     0
  0
CLASS
  1
VISUALSTYLE
  2
AcDbVisualStyle
  3
ObjectDBX Classes
 90
     4095
280
     0
281
     0
  0
CLASS
  1
MATERIAL
  2
AcDbMaterial
  3
ObjectDBX Classes
 90
     1153
280
     0
281
     0
  0
CLASS
  1
SCALE
  2
AcDbScale
  3
ObjectDBX Classes
 90
     1153
280
     0
281
     0
  0
CLASS
  1
SUN
  2
AcDbSun
  3
SCENEOE
 90
     1153
280
     0
281
     0
  0
CLASS
  1
ACDBPLACEHOLDER
  2
AcDbPlaceHolder
  3
ObjectDBX Classes
 90
        0
280
     0
281
     0
  0
CLASS
  1
LAYOUT
  2
AcDbLayout
  3
ObjectDBX Classes
 90
        0
280
     0
281
     0
  0
ENDSEC
  0
SECTION
  2
TABLES
  0
TABLE
  2
VPORT
  5
8
330
0
100
AcDbSymbolTable
 70
     1
  0
VPORT
  5
29
330
8
100
AcDbSymbolTableRecord
100
AcDbViewportTableRecord
  2
*Active
 70
     0
 10
0.0
 20
0.0
 11
1.0
 21
1.0
 12
5.5
 22
4.25
 13
0.0
 23
0.0
 14
0.5
 24
0.5
 15
0.5
 25
0.5
 16
0.0
 26
0.0
 36
1.0
 17
0.0
 27
0.0
 37
0.0
 40
8.5
 41
1.2941176471
 42
50.0
 43
0.0
 44
0.0
 50
0.0
 51
0.0
 71
     0
 72
  2000
 73
     1
 74
     3
 75
     0
 76
     0
 77
     0
 78
     0
281
     0
 65
     1
110
0.0
120
0.0
130
0.0
111
1.0
121
0.0
131
0.0
112
0.0
122
1.0
132
0.0
 79
     0
146
0.0
  0
ENDTAB
  0
TABLE
  2
LTYPE
  5
5
330
0
100
AcDbSymbolTable
 70
     6
  0
LTYPE
  5
14
330
5
100
AcDbSymbolTableRecord
100
AcDbLinetypeTableRecord
  2
ByBlock
 70
     0
  3

 72
    65
 73
     0
 40
0.0
  0
LTYPE
  5
15
330
5
100
AcDbSymbolTableRecord
100
AcDbLinetypeTableRecord
  2
ByLayer
 70
     0
  3

 72
    65
 73
     0
 40
0.0
  0
LTYPE
  5
16
330
5
100
AcDbSymbolTableRecord
100
AcDbLinetypeTableRecord
  2
Continuous
 70
     0
  3
Solid line
 72
    65
 73
     0
 40
0.0
  0
LTYPE
  5
6A
330
5
100
AcDbSymbolTableRecord
100
AcDbLinetypeTableRecord
  2
HIDDEN
 70
     0
  3
Hidden __ __ __ __ __ __ __ __ __ __ __ __ __ __
 72
    65
 73
     2
 40
0.075
 49
0.05
 74
     0
 49
-0.025
 74
     0
  0
LTYPE
  5
6B
330
5
100
AcDbSymbolTableRecord
100
AcDbLinetypeTableRecord
  2
PHANTOM
 70
     0
  3
Phantom ______  __  __  ______  __  __  ______
 72
    65
 73
     6
 40
0.5
 49
0.25
 74
     0
 49
-0.05
 74
     0
 49
0.05
 74
     0
 49
-0.05
 74
     0
 49
0.05
 74
     0
 49
-0.05
 74
     0
  0
LTYPE
  5
6C
330
5
100
AcDbSymbolTableRecord
100
AcDbLinetypeTableRecord
  2
CENTER
 70
     0
  3
Center ____ _ ____ _ ____ _ ____ _ ____ _ ____
 72
    65
 73
     4
 40
0.4
 49
0.25
 74
     0
 49
-0.05
 74
     0
 49
0.05
 74
     0
 49
-0.05
 74
     0
  0
LTYPE
  5
6D
330
5
100
AcDbSymbolTableRecord
100
AcDbLinetypeTableRecord
  2
CENTERX2
 70
     0
  3
Center (2x) ________  __  ________  __  _____
 72
    65
 73
     4
 40
0.8
 49
0.5
 74
     0
 49
-0.1
 74
     0
 49
0.1
 74
     0
 49
-0.1
 74
     0
  0
LTYPE
  5
6E
330
5
100
AcDbSymbolTableRecord
100
AcDbLinetypeTableRecord
  2
DOT2
 70
     0
  3
Dot (.5x) ........................................
 72
    65
 73
     2
 40
0.025
 49
0.0
 74
     0
 49
-0.025
 74
     0
  0
ENDTAB
  0
TABLE
  2
LAYER
  5
2
330
0
100
AcDbSymbolTable
 70
     2
  0
LAYER
  5
10
330
2
100
AcDbSymbolTableRecord
100
AcDbLayerTableRecord
  2
0
 70
     0
 62
     7
  6
Continuous
370
    -3
390
F
  0
LAYER
  5
6F
330
2
100
AcDbSymbolTableRecord
100
AcDbLayerTableRecord
  2
FORMAT
 70
     0
 62
     7
  6
Continuous
370
    -3
390
F
  0
ENDTAB
  0
TABLE
  2
STYLE
  5
3
330
0
100
AcDbSymbolTable
 70
     2
  0
STYLE
  5
11
330
3
100
AcDbSymbolTableRecord
100
AcDbTextStyleTableRecord
  2
Standard
 70
     0
 40
0.0
 41
1.0
 50
0.0
 71
     0
 42
0.1666666667
  3
txt
  4

  0
STYLE
  5
728
330
3
100
AcDbSymbolTableRecord
100
AcDbTextStyleTableRecord
  2
SLDTEXTSTYLE0
 70
     0
 40
0.0
 41
0.605
 50
0.0
 71
     0
 42
0.1666666667
  3
TXT
  4

  0
ENDTAB
  0
TABLE
  2
VIEW
  5
6
330
0
100
AcDbSymbolTable
 70
     0
  0
ENDTAB
  0
TABLE
  2
UCS
  5
7
330
0
100
AcDbSymbolTable
 70
     0
  0
ENDTAB
  0
TABLE
  2
APPID
  5
9
330
0
100
AcDbSymbolTable
 70
     1
  0
APPID
  5
12
330
9
100
AcDbSymbolTableRecord
100
AcDbRegAppTableRecord
  2
ACAD
 70
     0
  0
ENDTAB
  0
TABLE
  2
DIMSTYLE
  5
A
330
0
100
AcDbSymbolTable
 70
     1
100
AcDbDimStyleTable
  0
DIMSTYLE
105
27
330
A
100
AcDbSymbolTableRecord
100
AcDbDimStyleTableRecord
  2
Standard
 70
     0
178
     0
340
11
  0
ENDTAB
  0
TABLE
  2
BLOCK_RECORD
  5
1
330
0
100
AcDbSymbolTable
 70
     1
  0
BLOCK_RECORD
  5
1F
330
1
100
AcDbSymbolTableRecord
100
AcDbBlockTableRecord
  2
*Model_Space
340
22
  0
BLOCK_RECORD
  5
1B
330
1
100
AcDbSymbolTableRecord
100
AcDbBlockTableRecord
  2
*Paper_Space
340
1E
  0
BLOCK_RECORD
  5
23
330
1
100
AcDbSymbolTableRecord
100
AcDbBlockTableRecord
  2
*Paper_Space0
340
26
  0
ENDTAB
  0
ENDSEC
  0
SECTION
  2
BLOCKS
  0
BLOCK
  5
20
330
1F
100
AcDbEntity
  8
0
100
AcDbBlockBegin
  2
*Model_Space
 70
     0
 10
0.0
 20
0.0
 30
0.0
  3
*Model_Space
  1
*Model_Space
  0
ENDBLK
  5
21
330
1F
100
AcDbEntity
  8
0
100
AcDbBlockEnd
  0
BLOCK
  5
1C
330
1B
100
AcDbEntity
 67
     1
  8
0
100
AcDbBlockBegin
  2
*Paper_Space
 70
     0
 10
0.0
 20
0.0
 30
0.0
  3
*Paper_Space
  1
*Paper_Space
  0
ENDBLK
  5
1D
330
1B
100
AcDbEntity
 67
     1
  8
0
100
AcDbBlockEnd
  0
BLOCK
  5
24
330
23
100
AcDbEntity
  8
0
100
AcDbBlockBegin
  2
*Paper_Space0
 70
     0
 10
0.0
 20
0.0
 30
0.0
  3
*Paper_Space0
  1
*Paper_Space0
  0
ENDBLK
  5
25
330
23
100
AcDbEntity
  8
0
100
AcDbBlockEnd
  0
ENDSEC
  0
SECTION
  2
ENTITIES
  0
LINE
  5
70
330
1F
100
AcDbEntity
  8
0
  6
Continuous
 62
     7
370
    30
100
AcDbLine
 10
7.0034253908
 20
7.1718796523
 30
0.0
 11
7.0152659473
 21
7.1650435979
 31
0.0
  0
LINE
  5
71
330
1F
100
AcDbEntity
  8
0
  6
Continuous
 62
     7
370
    30
100
AcDbLine
 10
7.1562659851
 20
7.1650435979
 30
0.0
 11
7.1681065417
 21
7.1718796523
 31
0.0
  0
LINE
  5
72
330
1F
100
AcDbEntity
  8
0
  6
Continuous
 62
     7
370
    30
100
AcDbLine
 10
7.1807659288
 20
7.1236330363
 30
0.0
 11
7.1562659851
 21
7.1377782862
 31
0.0
  0
LINE
  5
73
330
1F
100
AcDbEntity
  8
0
  6
Continuous
 62
     7
370
    30
100
AcDbLine
 10
7.0152659473
 20
7.1377782862
 30
0.0
 11
6.9907660037
 21
7.1236330363
 31
0.0
  0
LINE
  5
74
330
1F
100
AcDbEntity
  8
0
  6
Continuous
 62
     7
370
    30
100
AcDbLine
 10
6.9907660037
 20
7.1236330363
 30
0.0
 11
7.0152659473
 21
7.1094880797
 31
0.0
  0
LINE
  5
75
330
1F
100
AcDbEntity
  8
0
  6
Continuous
 62
     7
370
    30
100
AcDbLine
 10
7.1562659851
 20
7.1094880797
 30
0.0
 11
7.1807659288
 21
7.1236330363
 31
0.0
  0
LINE
  5
76
330
1F
100
AcDbEntity
  8
0
  6
Continuous
 62
     7
370
    30
100
AcDbLine
 10
7.1807659288
 20
7.0680775181
 30
0.0
 11
7.1562659851
 21
7.0822224747
 31
0.0
  0
LINE
  5
77
330
1F
100
AcDbEntity
  8
0
  6
Continuous
 62
     7
370
    30
100
AcDbLine
 10
7.0152659473
 20
7.0822224747
 30
0.0
 11
6.9907660037
 21
7.0680775181
 31
0.0
  0
LINE
  5
78
330
1F
100
AcDbEntity
  8
0
  6
Continuous
 62
     7
370
    30
100
AcDbLine
 10
7.1807659288
 20
7.0125219999
 30
0.0
 11
7.1562659851
 21
7.0266669565
 31
0.0
  0
LINE
  5
79
330
1F
100
AcDbEntity
  8
0
  6
Continuous
 62
     7
370
    30
100
AcDbLine
 10
7.0152659473
 20
7.0266669565
 30
0.0
 11
6.9907660037
 21
7.0125219999
 31
0.0
  0
LINE
  5
7A
330
1F
100
AcDbEntity
  8
0
  6
Continuous
 62
     7
370
    30
100
AcDbLine
 10
6.9907660037
 20
7.0680775181
 30
0.0
 11
7.0152659473
 21
7.0539325615
 31
0.0
  0
LINE
  5
7B
330
1F
100
AcDbEntity
  8
0
  6
Continuous
 62
     7
370
    30
100
AcDbLine
 10
7.1562659851
 20
7.0539325615
 30
0.0
 11
7.1807659288
 21
7.0680775181
 31
0.0
  0
LINE
  5
7C
330
1F
100
AcDbEntity
  8
0
  6
Continuous
 62
     7
370
    30
100
AcDbLine
 10
6.9907660037
 20
7.0125219999
 30
0.0
 11
7.0152659473
 21
6.9983767499
 31
0.0
  0
LINE
  5
7D
330
1F
100
AcDbEntity
  8
0
  6
Continuous
 62
     7
370
    30
100
AcDbLine
 10
7.1562659851
 20
6.9983767499
 30
0.0
 11
7.1807659288
 21
7.0125219999
 31
0.0
  0
LINE
  5
7E
330
1F
100
AcDbEntity
  8
0
  6
Continuous
 62
     7
370
    30
100
AcDbLine
 10
6.9907660037
 20
6.9569664816
 30
0.0
 11
7.0152659473
 21
6.9428212317
 31
0.0
  0
LINE
  5
7F
330
1F
100
AcDbEntity
  8
0
  6
Continuous
 62
     7
370
    30
100
AcDbLine
 10
7.1562659851
 20
6.9428212317
 30
0.0
 11
7.1807659288
 21
6.9569664816
 31
0.0
  0
LINE
  5
80
330
1F
100
AcDbEntity
  8
0
  6
Continuous
 62
     7
370
    30
100
AcDbLine
 10
7.1807659288
 20
6.9569664816
 30
0.0
 11
7.1562659851
 21
6.9711114382
 31
0.0
  0
LINE
  5
81
330
1F
100
AcDbEntity
  8
0
  6
Continuous
 62
     7
370
    30
100
AcDbLine
 10
7.0152659473
 20
6.9711114382
 30
0.0
 11
6.9907660037
 21
6.9569664816
 31
0.0
  0
LINE
  5
82
330
1F
100
AcDbEntity
  8
0
  6
Continuous
 62
     7
370
    30
100
AcDbLine
 10
6.9907660037
 20
6.9014109634
 30
0.0
 11
7.0152659473
 21
6.8872657135
 31
0.0
  0
LINE
  5
83
330
1F
100
AcDbEntity
  8
0
  6
Continuous
 62
     7
370
    30
100
AcDbLine
 10
7.1562659851
 20
6.8872657135
 30
0.0
 11
7.1807659288
 21
6.9014109634
 31
0.0
  0
LINE
  5
84
330
1F
100
AcDbEntity
  8
0
  6
Continuous
 62
     7
370
    30
100
AcDbLine
 10
7.1807659288
 20
6.9014109634
 30
0.0
 11
7.1562659851
 21
6.91555592
 31
0.0
  0
LINE
  5
85
330
1F
100
AcDbEntity
  8
0
  6
Continuous
 62
     7
370
    30
100
AcDbLine
 10
7.0152659473
 20
6.91555592
 30
0.0
 11
6.9907660037
 21
6.9014109634
 31
0.0
  0
LINE
  5
86
330
1F
100
AcDbEntity
  8
0
  6
Continuous
 62
     7
370
    30
100
AcDbLine
 10
7.1807659288
 20
6.8458551519
 30
0.0
 11
7.1562659851
 21
6.8600004018
 31
0.0
  0
LINE
  5
87
330
1F
100
AcDbEntity
  8
0
  6
Continuous
 62
     7
370
    30
100
AcDbLine
 10
7.0152659473
 20
6.8600004018
 30
0.0
 11
6.9907660037
 21
6.8458551519
 31
0.0
  0
LINE
  5
88
330
1F
100
AcDbEntity
  8
0
  6
Continuous
 62
     7
370
    30
100
AcDbLine
 10
6.9907660037
 20
6.8458551519
 30
0.0
 11
7.0152659473
 21
6.8317101953
 31
0.0
  0
LINE
  5
89
330
1F
100
AcDbEntity
  8
0
  6
Continuous
 62
     7
370
    30
100
AcDbLine
 10
7.1562659851
 20
6.8317101953
 30
0.0
 11
7.1807659288
 21
6.8458551519
 31
0.0
  0
LINE
  5
8A
330
1F
100
AcDbEntity
  8
0
  6
Continuous
 62
     7
370
    30
100
AcDbLine
 10
6.9907660037
 20
6.7902996337
 30
0.0
 11
7.0152659473
 21
6.7761546771
 31
0.0
  0
LINE
  5
8B
330
1F
100
AcDbEntity
  8
0
  6
Continuous
 62
     7
370
    30
100
AcDbLine
 10
7.1562659851
 20
6.7761546771
 30
0.0
 11
7.1807659288
 21
6.7902996337
 31
0.0
  0
LINE
  5
8C
330
1F
100
AcDbEntity
  8
0
  6
Continuous
 62
     7
370
    30
100
AcDbLine
 10
7.1807659288
 20
6.7902996337
 30
0.0
 11
7.1562659851
 21
6.8044448836
 31
0.0
  0
LINE
  5
8D
330
1F
100
AcDbEntity
  8
0
  6
Continuous
 62
     7
370
    30
100
AcDbLine
 10
7.0152659473
 20
6.8044448836
 30
0.0
 11
6.9907660037
 21
6.7902996337
 31
0.0
  0
LINE
  5
8E
330
1F
100
AcDbEntity
  8
0
  6
Continuous
 62
     7
370
    30
100
AcDbLine
 10
6.9907660037
 20
6.7347441154
 30
0.0
 11
7.0152659473
 21
6.7205991589
 31
0.0
  0
LINE
  5
8F
330
1F
100
AcDbEntity
  8
0
  6
Continuous
 62
     7
370
    30
100
AcDbLine
 10
7.1562659851
 20
6.7205991589
 30
0.0
 11
7.1807659288
 21
6.7347441154
 31
0.0
  0
LINE
  5
90
330
1F
100
AcDbEntity
  8
0
  6
Continuous
 62
     7
370
    30
100
AcDbLine
 10
7.1807659288
 20
6.7347441154
 30
0.0
 11
7.1562659851
 21
6.7488893654
 31
0.0
  0
LINE
  5
91
330
1F
100
AcDbEntity
  8
0
  6
Continuous
 62
     7
370
    30
100
AcDbLine
 10
7.0152659473
 20
6.7488893654
 30
0.0
 11
6.9907660037
 21
6.7347441154
 31
0.0
  0
LINE
  5
92
330
1F
100
AcDbEntity
  8
0
  6
Continuous
 62
     7
370
    30
100
AcDbLine
 10
7.1807659288
 20
6.6791885972
 30
0.0
 11
7.1562659851
 21
6.6933335538
 31
0.0
  0
LINE
  5
93
330
1F
100
AcDbEntity
  8
0
  6
Continuous
 62
     7
370
    30
100
AcDbLine
 10
7.0152659473
 20
6.6933335538
 30
0.0
 11
6.9907660037
 21
6.6791885972
 31
0.0
  0
LINE
  5
94
330
1F
100
AcDbEntity
  8
0
  6
Continuous
 62
     7
370
    30
100
AcDbLine
 10
6.9907660037
 20
6.6791885972
 30
0.0
 11
7.0152659473
 21
6.6650436406
 31
0.0
  0
LINE
  5
95
330
1F
100
AcDbEntity
  8
0
  6
Continuous
 62
     7
370
    30
100
AcDbLine
 10
7.1562659851
 20
6.6650436406
 30
0.0
 11
7.1807659288
 21
6.6791885972
 31
0.0
  0
LINE
  5
96
330
1F
100
AcDbEntity
  8
0
  6
Continuous
 62
     7
370
    30
100
AcDbLine
 10
7.1807659288
 20
6.623633079
 30
0.0
 11
7.1562659851
 21
6.6377780356
 31
0.0
  0
LINE
  5
97
330
1F
100
AcDbEntity
  8
0
  6
Continuous
 62
     7
370
    30
100
AcDbLine
 10
7.0152659473
 20
6.6377780356
 30
0.0
 11
6.9907660037
 21
6.623633079
 31
0.0
  0
LINE
  5
98
330
1F
100
AcDbEntity
  8
0
  6
Continuous
 62
     7
370
    30
100
AcDbLine
 10
6.9907660037
 20
6.623633079
 30
0.0
 11
7.0152659473
 21
6.6094881224
 31
0.0
  0
LINE
  5
99
330
1F
100
AcDbEntity
  8
0
  6
Continuous
 62
     7
370
    30
100
AcDbLine
 10
7.1562659851
 20
6.6094881224
 30
0.0
 11
7.1807659288
 21
6.623633079
 31
0.0
  0
LINE
  5
9A
330
1F
100
AcDbEntity
  8
0
  6
Continuous
 62
     7
370
    30
100
AcDbLine
 10
6.9907660037
 20
6.5680775608
 30
0.0
 11
7.0152659473
 21
6.5539323109
 31
0.0
  0
LINE
  5
9B
330
1F
100
AcDbEntity
  8
0
  6
Continuous
 62
     7
370
    30
100
AcDbLine
 10
7.1562659851
 20
6.5539323109
 30
0.0
 11
7.1807659288
 21
6.5680775608
 31
0.0
  0
LINE
  5
9C
330
1F
100
AcDbEntity
  8
0
  6
Continuous
 62
     7
370
    30
100
AcDbLine
 10
7.1807659288
 20
6.5680775608
 30
0.0
 11
7.1562659851
 21
6.5822225174
 31
0.0
  0
LINE
  5
9D
330
1F
100
AcDbEntity
  8
0
  6
Continuous
 62
     7
370
    30
100
AcDbLine
 10
7.0152659473
 20
6.5822225174
 30
0.0
 11
6.9907660037
 21
6.5680775608
 31
0.0
  0
LINE
  5
9E
330
1F
100
AcDbEntity
  8
0
  6
Continuous
 62
     7
370
    30
100
AcDbLine
 10
7.1807659288
 20
6.5125220426
 30
0.0
 11
7.1562659851
 21
6.5266669992
 31
0.0
  0
LINE
  5
9F
330
1F
100
AcDbEntity
  8
0
  6
Continuous
 62
     7
370
    30
100
AcDbLine
 10
7.0152659473
 20
6.5266669992
 30
0.0
 11
6.9907660037
 21
6.5125220426
 31
0.0
  0
LINE
  5
A0
330
1F
100
AcDbEntity
  8
0
  6
Continuous
 62
     7
370
    30
100
AcDbLine
 10
6.9907660037
 20
6.5125220426
 30
0.0
 11
7.0152659473
 21
6.4983767926
 31
0.0
  0
LINE
  5
A1
330
1F
100
AcDbEntity
  8
0
  6
Continuous
 62
     7
370
    30
100
AcDbLine
 10
7.1562659851
 20
6.4983767926
 30
0.0
 11
7.1807659288
 21
6.5125220426
 31
0.0
  0
LINE
  5
A2
330
1F
100
AcDbEntity
  8
0
  6
Continuous
 62
     7
370
    30
100
AcDbLine
 10
7.1807659288
 20
6.4569665244
 30
0.0
 11
7.1562659851
 21
6.471111481
 31
0.0
  0
LINE
  5
A3
330
1F
100
AcDbEntity
  8
0
  6
Continuous
 62
     7
370
    30
100
AcDbLine
 10
7.0152659473
 20
6.471111481
 30
0.0
 11
6.9907660037
 21
6.4569665244
 31
0.0
  0
LINE
  5
A4
330
1F
100
AcDbEntity
  8
0
  6
Continuous
 62
     7
370
    30
100
AcDbLine
 10
6.9907660037
 20
6.4569665244
 30
0.0
 11
7.0152659473
 21
6.4428212744
 31
0.0
  0
LINE
  5
A5
330
1F
100
AcDbEntity
  8
0
  6
Continuous
 62
     7
370
    30
100
AcDbLine
 10
7.1562659851
 20
6.4428212744
 30
0.0
 11
7.1807659288
 21
6.4569665244
 31
0.0
  0
LINE
  5
A6
330
1F
100
AcDbEntity
  8
0
  6
Continuous
 62
     7
370
    30
100
AcDbLine
 10
7.1807659288
 20
6.4014107128
 30
0.0
 11
7.1562659851
 21
6.4155559627
 31
0.0
  0
LINE
  5
A7
330
1F
100
AcDbEntity
  8
0
  6
Continuous
 62
     7
370
    30
100
AcDbLine
 10
7.0152659473
 20
6.4155559627
 30
0.0
 11
6.9907660037
 21
6.4014107128
 31
0.0
  0
LINE
  5
A8
330
1F
100
AcDbEntity
  8
0
  6
Continuous
 62
     7
370
    30
100
AcDbLine
 10
6.9907660037
 20
6.4014107128
 30
0.0
 11
7.0152659473
 21
6.3872657562
 31
0.0
  0
LINE
  5
A9
330
1F
100
AcDbEntity
  8
0
  6
Continuous
 62
     7
370
    30
100
AcDbLine
 10
7.1562659851
 20
6.3872657562
 30
0.0
 11
7.1807659288
 21
6.4014107128
 31
0.0
  0
LINE
  5
AA
330
1F
100
AcDbEntity
  8
0
  6
Continuous
 62
     7
370
    30
100
AcDbLine
 10
7.1807659288
 20
6.3458551946
 30
0.0
 11
7.1562659851
 21
6.3600004445
 31
0.0
  0
LINE
  5
AB
330
1F
100
AcDbEntity
  8
0
  6
Continuous
 62
     7
370
    30
100
AcDbLine
 10
7.0152659473
 20
6.3600004445
 30
0.0
 11
6.9907660037
 21
6.3458551946
 31
0.0
  0
LINE
  5
AC
330
1F
100
AcDbEntity
  8
0
  6
Continuous
 62
     7
370
    30
100
AcDbLine
 10
6.9907660037
 20
6.3458551946
 30
0.0
 11
7.0152659473
 21
6.331710238
 31
0.0
  0
LINE
  5
AD
330
1F
100
AcDbEntity
  8
0
  6
Continuous
 62
     7
370
    30
100
AcDbLine
 10
7.1562659851
 20
6.331710238
 30
0.0
 11
7.1807659288
 21
6.3458551946
 31
0.0
  0
LINE
  5
AE
330
1F
100
AcDbEntity
  8
0
  6
Continuous
 62
     7
370
    30
100
AcDbLine
 10
7.1807659288
 20
6.2902996764
 30
0.0
 11
7.1562659851
 21
6.3044449263
 31
0.0
  0
LINE
  5
AF
330
1F
100
AcDbEntity
  8
0
  6
Continuous
 62
     7
370
    30
100
AcDbLine
 10
7.0152659473
 20
6.3044449263
 30
0.0
 11
6.9907660037
 21
6.2902996764
 31
0.0
  0
LINE
  5
B0
330
1F
100
AcDbEntity
  8
0
  6
Continuous
 62
     7
370
    30
100
AcDbLine
 10
6.9907660037
 20
6.2902996764
 30
0.0
 11
7.0152659473
 21
6.2761547198
 31
0.0
  0
LINE
  5
B1
330
1F
100
AcDbEntity
  8
0
  6
Continuous
 62
     7
370
    30
100
AcDbLine
 10
7.1562659851
 20
6.2761547198
 30
0.0
 11
7.1807659288
 21
6.2902996764
 31
0.0
  0
LINE
  5
B2
330
1F
100
AcDbEntity
  8
0
  6
Continuous
 62
     7
370
    30
100
AcDbLine
 10
7.1807659288
 20
6.2347441582
 30
0.0
 11
7.1562659851
 21
6.2488891148
 31
0.0
  0
LINE
  5
B3
330
1F
100
AcDbEntity
  8
0
  6
Continuous
 62
     7
370
    30
100
AcDbLine
 10
7.0152659473
 20
6.2488891148
 30
0.0
 11
6.9907660037
 21
6.2347441582
 31
0.0
  0
LINE
  5
B4
330
1F
100
AcDbEntity
  8
0
  6
Continuous
 62
     7
370
    30
100
AcDbLine
 10
6.9907660037
 20
6.2347441582
 30
0.0
 11
7.0152659473
 21
6.2205992016
 31
0.0
  0
LINE
  5
B5
330
1F
100
AcDbEntity
  8
0
  6
Continuous
 62
     7
370
    30
100
AcDbLine
 10
7.1562659851
 20
6.2205992016
 30
0.0
 11
7.1807659288
 21
6.2347441582
 31
0.0
  0
LINE
  5
B6
330
1F
100
AcDbEntity
  8
0
  6
Continuous
 62
     7
370
    30
100
AcDbLine
 10
7.1807659288
 20
6.1791886399
 30
0.0
 11
7.1562659851
 21
6.1933335965
 31
0.0
  0
LINE
  5
B7
330
1F
100
AcDbEntity
  8
0
  6
Continuous
 62
     7
370
    30
100
AcDbLine
 10
7.0152659473
 20
6.1933335965
 30
0.0
 11
6.9907660037
 21
6.1791886399
 31
0.0
  0
LINE
  5
B8
330
1F
100
AcDbEntity
  8
0
  6
Continuous
 62
     7
370
    30
100
AcDbLine
 10
6.9907660037
 20
6.1791886399
 30
0.0
 11
7.0152659473
 21
6.1650436833
 31
0.0
  0
LINE
  5
B9
330
1F
100
AcDbEntity
  8
0
  6
Continuous
 62
     7
370
    30
100
AcDbLine
 10
7.1562659851
 20
6.1650436833
 30
0.0
 11
7.1807659288
 21
6.1791886399
 31
0.0
  0
LINE
  5
BA
330
1F
100
AcDbEntity
  8
0
  6
Continuous
 62
     7
370
    30
100
AcDbLine
 10
7.1807659288
 20
6.1236331217
 30
0.0
 11
7.1562659851
 21
6.1377780783
 31
0.0
  0
LINE
  5
BB
330
1F
100
AcDbEntity
  8
0
  6
Continuous
 62
     7
370
    30
100
AcDbLine
 10
7.0152659473
 20
6.1377780783
 30
0.0
 11
6.9907660037
 21
6.1236331217
 31
0.0
  0
LINE
  5
BC
330
1F
100
AcDbEntity
  8
0
  6
Continuous
 62
     7
370
    30
100
AcDbLine
 10
6.9907660037
 20
6.1236331217
 30
0.0
 11
7.0152659473
 21
6.1094878718
 31
0.0
  0
LINE
  5
BD
330
1F
100
AcDbEntity
  8
0
  6
Continuous
 62
     7
370
    30
100
AcDbLine
 10
7.1562659851
 20
6.1094878718
 30
0.0
 11
7.1807659288
 21
6.1236331217
 31
0.0
  0
LINE
  5
BE
330
1F
100
AcDbEntity
  8
0
  6
Continuous
 62
     7
370
    30
100
AcDbLine
 10
6.9907660037
 20
6.0680776035
 30
0.0
 11
7.0152659473
 21
6.0539323536
 31
0.0
  0
LINE
  5
BF
330
1F
100
AcDbEntity
  8
0
  6
Continuous
 62
     7
370
    30
100
AcDbLine
 10
7.1562659851
 20
6.0539323536
 30
0.0
 11
7.1807659288
 21
6.0680776035
 31
0.0
  0
LINE
  5
C0
330
1F
100
AcDbEntity
  8
0
  6
Continuous
 62
     7
370
    30
100
AcDbLine
 10
7.1807659288
 20
6.0680776035
 30
0.0
 11
7.1562659851
 21
6.0822225601
 31
0.0
  0
LINE
  5
C1
330
1F
100
AcDbEntity
  8
0
  6
Continuous
 62
     7
370
    30
100
AcDbLine
 10
7.0152659473
 20
6.0822225601
 30
0.0
 11
6.9907660037
 21
6.0680776035
 31
0.0
  0
LINE
  5
C2
330
1F
100
AcDbEntity
  8
0
  6
Continuous
 62
     7
370
    30
100
AcDbLine
 10
6.9907660037
 20
6.0125220853
 30
0.0
 11
7.0152659473
 21
5.9983768354
 31
0.0
  0
LINE
  5
C3
330
1F
100
AcDbEntity
  8
0
  6
Continuous
 62
     7
370
    30
100
AcDbLine
 10
7.1562659851
 20
5.9983768354
 30
0.0
 11
7.1807659288
 21
6.0125220853
 31
0.0
  0
LINE
  5
C4
330
1F
100
AcDbEntity
  8
0
  6
Continuous
 62
     7
370
    30
100
AcDbLine
 10
7.1807659288
 20
6.0125220853
 30
0.0
 11
7.1562659851
 21
6.0266670419
 31
0.0
  0
LINE
  5
C5
330
1F
100
AcDbEntity
  8
0
  6
Continuous
 62
     7
370
    30
100
AcDbLine
 10
7.0152659473
 20
6.0266670419
 30
0.0
 11
6.9907660037
 21
6.0125220853
 31
0.0
  0
LINE
  5
C6
330
1F
100
AcDbEntity
  8
0
  6
Continuous
 62
     7
370
    30
100
AcDbLine
 10
6.9907660037
 20
5.9569662737
 30
0.0
 11
7.0152659473
 21
5.9428213171
 31
0.0
  0
LINE
  5
C7
330
1F
100
AcDbEntity
  8
0
  6
Continuous
 62
     7
370
    30
100
AcDbLine
 10
7.1562659851
 20
5.9428213171
 30
0.0
 11
7.1807659288
 21
5.9569662737
 31
0.0
  0
LINE
  5
C8
330
1F
100
AcDbEntity
  8
0
  6
Continuous
 62
     7
370
    30
100
AcDbLine
 10
7.1807659288
 20
5.9569662737
 30
0.0
 11
7.1562659851
 21
5.9711115237
 31
0.0
  0
LINE
  5
C9
330
1F
100
AcDbEntity
  8
0
  6
Continuous
 62
     7
370
    30
100
AcDbLine
 10
7.0152659473
 20
5.9711115237
 30
0.0
 11
6.9907660037
 21
5.9569662737
 31
0.0
  0
LINE
  5
CA
330
1F
100
AcDbEntity
  8
0
  6
Continuous
 62
     7
370
    30
100
AcDbLine
 10
6.9907660037
 20
5.9014107555
 30
0.0
 11
7.0152659473
 21
5.8872657989
 31
0.0
  0
LINE
  5
CB
330
1F
100
AcDbEntity
  8
0
  6
Continuous
 62
     7
370
    30
100
AcDbLine
 10
7.1562659851
 20
5.8872657989
 30
0.0
 11
7.1807659288
 21
5.9014107555
 31
0.0
  0
LINE
  5
CC
330
1F
100
AcDbEntity
  8
0
  6
Continuous
 62
     7
370
    30
100
AcDbLine
 10
7.1807659288
 20
5.9014107555
 30
0.0
 11
7.1562659851
 21
5.9155560054
 31
0.0
  0
LINE
  5
CD
330
1F
100
AcDbEntity
  8
0
  6
Continuous
 62
     7
370
    30
100
AcDbLine
 10
7.0152659473
 20
5.9155560054
 30
0.0
 11
6.9907660037
 21
5.9014107555
 31
0.0
  0
LINE
  5
CE
330
1F
100
AcDbEntity
  8
0
  6
Continuous
 62
     7
370
    30
100
AcDbLine
 10
7.1807659288
 20
5.8458552373
 30
0.0
 11
7.1562659851
 21
5.8600004872
 31
0.0
  0
LINE
  5
CF
330
1F
100
AcDbEntity
  8
0
  6
Continuous
 62
     7
370
    30
100
AcDbLine
 10
7.0152659473
 20
5.8600004872
 30
0.0
 11
6.9907660037
 21
5.8458552373
 31
0.0
  0
LINE
  5
D0
330
1F
100
AcDbEntity
  8
0
  6
Continuous
 62
     7
370
    30
100
AcDbLine
 10
6.9907660037
 20
5.8458552373
 30
0.0
 11
7.0152659473
 21
5.8317102807
 31
0.0
  0
LINE
  5
D1
330
1F
100
AcDbEntity
  8
0
  6
Continuous
 62
     7
370
    30
100
AcDbLine
 10
7.1562659851
 20
5.8317102807
 30
0.0
 11
7.1807659288
 21
5.8458552373
 31
0.0
  0
LINE
  5
D2
330
1F
100
AcDbEntity
  8
0
  6
Continuous
 62
     7
370
    30
100
AcDbLine
 10
7.1807659288
 20
5.7902997191
 30
0.0
 11
7.1562659851
 21
5.8044446757
 31
0.0
  0
LINE
  5
D3
330
1F
100
AcDbEntity
  8
0
  6
Continuous
 62
     7
370
    30
100
AcDbLine
 10
7.0152659473
 20
5.8044446757
 30
0.0
 11
6.9907660037
 21
5.7902997191
 31
0.0
  0
LINE
  5
D4
330
1F
100
AcDbEntity
  8
0
  6
Continuous
 62
     7
370
    30
100
AcDbLine
 10
7.1807659288
 20
5.7347442009
 30
0.0
 11
7.1562659851
 21
5.7488891575
 31
0.0
  0
LINE
  5
D5
330
1F
100
AcDbEntity
  8
0
  6
Continuous
 62
     7
370
    30
100
AcDbLine
 10
7.0152659473
 20
5.7488891575
 30
0.0
 11
6.9907660037
 21
5.7347442009
 31
0.0
  0
LINE
  5
D6
330
1F
100
AcDbEntity
  8
0
  6
Continuous
 62
     7
370
    30
100
AcDbLine
 10
6.9907660037
 20
5.7902997191
 30
0.0
 11
7.0152659473
 21
5.7761547625
 31
0.0
  0
LINE
  5
D7
330
1F
100
AcDbEntity
  8
0
  6
Continuous
 62
     7
370
    30
100
AcDbLine
 10
7.1562659851
 20
5.7761547625
 30
0.0
 11
7.1807659288
 21
5.7902997191
 31
0.0
  0
LINE
  5
D8
330
1F
100
AcDbEntity
  8
0
  6
Continuous
 62
     7
370
    30
100
AcDbLine
 10
6.9907660037
 20
5.7347442009
 30
0.0
 11
7.0152659473
 21
5.7205989509
 31
0.0
  0
LINE
  5
D9
330
1F
100
AcDbEntity
  8
0
  6
Continuous
 62
     7
370
    30
100
AcDbLine
 10
7.1562659851
 20
5.7205989509
 30
0.0
 11
7.1807659288
 21
5.7347442009
 31
0.0
  0
LINE
  5
DA
330
1F
100
AcDbEntity
  8
0
  6
Continuous
 62
     7
370
    30
100
AcDbLine
 10
6.9907660037
 20
5.6791886826
 30
0.0
 11
7.0152659473
 21
5.6650434327
 31
0.0
  0
LINE
  5
DB
330
1F
100
AcDbEntity
  8
0
  6
Continuous
 62
     7
370
    30
100
AcDbLine
 10
7.1562659851
 20
5.6650434327
 30
0.0
 11
7.1807659288
 21
5.6791886826
 31
0.0
  0
LINE
  5
DC
330
1F
100
AcDbEntity
  8
0
  6
Continuous
 62
     7
370
    30
100
AcDbLine
 10
7.1807659288
 20
5.6791886826
 30
0.0
 11
7.1562659851
 21
5.6933336392
 31
0.0
  0
LINE
  5
DD
330
1F
100
AcDbEntity
  8
0
  6
Continuous
 62
     7
370
    30
100
AcDbLine
 10
7.0152659473
 20
5.6933336392
 30
0.0
 11
6.9907660037
 21
5.6791886826
 31
0.0
  0
LINE
  5
DE
330
1F
100
AcDbEntity
  8
0
  6
Continuous
 62
     7
370
    30
100
AcDbLine
 10
7.1807659288
 20
5.6236331644
 30
0.0
 11
7.1562659851
 21
5.637778121
 31
0.0
  0
LINE
  5
DF
330
1F
100
AcDbEntity
  8
0
  6
Continuous
 62
     7
370
    30
100
AcDbLine
 10
7.0152659473
 20
5.637778121
 30
0.0
 11
6.9907660037
 21
5.6236331644
 31
0.0
  0
LINE
  5
E0
330
1F
100
AcDbEntity
  8
0
  6
Continuous
 62
     7
370
    30
100
AcDbLine
 10
6.9907660037
 20
5.6236331644
 30
0.0
 11
7.0152659473
 21
5.6094879145
 31
0.0
  0
LINE
  5
E1
330
1F
100
AcDbEntity
  8
0
  6
Continuous
 62
     7
370
    30
100
AcDbLine
 10
7.1562659851
 20
5.6094879145
 30
0.0
 11
7.1807659288
 21
5.6236331644
 31
0.0
  0
LINE
  5
E2
330
1F
100
AcDbEntity
  8
0
  6
Continuous
 62
     7
370
    30
100
AcDbLine
 10
7.1807659288
 20
5.5680774995
 30
0.0
 11
7.1562659851
 21
5.5822226028
 31
0.0
  0
LINE
  5
E3
330
1F
100
AcDbEntity
  8
0
  6
Continuous
 62
     7
370
    30
100
AcDbLine
 10
7.0152659473
 20
5.5822226028
 30
0.0
 11
6.9907660037
 21
5.5680774995
 31
0.0
  0
LINE
  5
E4
330
1F
100
AcDbEntity
  8
0
  6
Continuous
 62
     7
370
    30
100
AcDbLine
 10
6.9907660037
 20
5.5680774995
 30
0.0
 11
7.0152659473
 21
5.5539323963
 31
0.0
  0
LINE
  5
E5
330
1F
100
AcDbEntity
  8
0
  6
Continuous
 62
     7
370
    30
100
AcDbLine
 10
7.1562659851
 20
5.5539323963
 30
0.0
 11
7.1807659288
 21
5.5680774995
 31
0.0
  0
LINE
  5
E6
330
1F
100
AcDbEntity
  8
0
  6
Continuous
 62
     7
370
    30
100
AcDbLine
 10
6.9907660037
 20
5.5125219813
 30
0.0
 11
7.0152659473
 21
5.4983768781
 31
0.0
  0
LINE
  5
E7
330
1F
100
AcDbEntity
  8
0
  6
Continuous
 62
     7
370
    30
100
AcDbLine
 10
7.1562659851
 20
5.4983768781
 30
0.0
 11
7.1807659288
 21
5.5125219813
 31
0.0
  0
LINE
  5
E8
330
1F
100
AcDbEntity
  8
0
  6
Continuous
 62
     7
370
    30
100
AcDbLine
 10
7.1807659288
 20
5.5125219813
 30
0.0
 11
7.1562659851
 21
5.5266670846
 31
0.0
  0
LINE
  5
E9
330
1F
100
AcDbEntity
  8
0
  6
Continuous
 62
     7
370
    30
100
AcDbLine
 10
7.0152659473
 20
5.5266670846
 30
0.0
 11
6.9907660037
 21
5.5125219813
 31
0.0
  0
LINE
  5
EA
330
1F
100
AcDbEntity
  8
0
  6
Continuous
 62
     7
370
    30
100
AcDbLine
 10
7.1807659288
 20
5.4569664631
 30
0.0
 11
7.1562659851
 21
5.4711114197
 31
0.0
  0
LINE
  5
EB
330
1F
100
AcDbEntity
  8
0
  6
Continuous
 62
     7
370
    30
100
AcDbLine
 10
7.0152659473
 20
5.4711114197
 30
0.0
 11
6.9907660037
 21
5.4569664631
 31
0.0
  0
LINE
  5
EC
330
1F
100
AcDbEntity
  8
0
  6
Continuous
 62
     7
370
    30
100
AcDbLine
 10
6.9907660037
 20
5.4569664631
 30
0.0
 11
7.0152659473
 21
5.4428213598
 31
0.0
  0
LINE
  5
ED
330
1F
100
AcDbEntity
  8
0
  6
Continuous
 62
     7
370
    30
100
AcDbLine
 10
7.1562659851
 20
5.4428213598
 30
0.0
 11
7.1807659288
 21
5.4569664631
 31
0.0
  0
LINE
  5
EE
330
1F
100
AcDbEntity
  8
0
  6
Continuous
 62
     7
370
    30
100
AcDbLine
 10
7.1807659288
 20
5.4014107982
 30
0.0
 11
7.1562659851
 21
5.4155559015
 31
0.0
  0
LINE
  5
EF
330
1F
100
AcDbEntity
  8
0
  6
Continuous
 62
     7
370
    30
100
AcDbLine
 10
7.0152659473
 20
5.4155559015
 30
0.0
 11
6.9907660037
 21
5.4014107982
 31
0.0
  0
LINE
  5
F0
330
1F
100
AcDbEntity
  8
0
  6
Continuous
 62
     7
370
    30
100
AcDbLine
 10
6.9907660037
 20
5.4014107982
 30
0.0
 11
7.0152659473
 21
5.387265695
 31
0.0
  0
LINE
  5
F1
330
1F
100
AcDbEntity
  8
0
  6
Continuous
 62
     7
370
    30
100
AcDbLine
 10
7.1562659851
 20
5.387265695
 30
0.0
 11
7.1807659288
 21
5.4014107982
 31
0.0
  0
LINE
  5
F2
330
1F
100
AcDbEntity
  8
0
  6
Continuous
 62
     7
370
    30
100
AcDbLine
 10
7.1807659288
 20
5.34585528
 30
0.0
 11
7.1562659851
 21
5.3600003833
 31
0.0
  0
LINE
  5
F3
330
1F
100
AcDbEntity
  8
0
  6
Continuous
 62
     7
370
    30
100
AcDbLine
 10
7.0152659473
 20
5.3600003833
 30
0.0
 11
6.9907660037
 21
5.34585528
 31
0.0
  0
LINE
  5
F4
330
1F
100
AcDbEntity
  8
0
  6
Continuous
 62
     7
370
    30
100
AcDbLine
 10
6.9907660037
 20
5.34585528
 30
0.0
 11
7.0152659473
 21
5.3317101767
 31
0.0
  0
LINE
  5
F5
330
1F
100
AcDbEntity
  8
0
  6
Continuous
 62
     7
370
    30
100
AcDbLine
 10
7.1562659851
 20
5.3317101767
 30
0.0
 11
7.1807659288
 21
5.34585528
 31
0.0
  0
LINE
  5
F6
330
1F
100
AcDbEntity
  8
0
  6
Continuous
 62
     7
370
    30
100
AcDbLine
 10
6.9907660037
 20
5.2902997618
 30
0.0
 11
7.0152659473
 21
5.2761546585
 31
0.0
  0
LINE
  5
F7
330
1F
100
AcDbEntity
  8
0
  6
Continuous
 62
     7
370
    30
100
AcDbLine
 10
7.1562659851
 20
5.2761546585
 30
0.0
 11
7.1807659288
 21
5.2902997618
 31
0.0
  0
LINE
  5
F8
330
1F
100
AcDbEntity
  8
0
  6
Continuous
 62
     7
370
    30
100
AcDbLine
 10
7.1807659288
 20
5.2902997618
 30
0.0
 11
7.1562659851
 21
5.3044448651
 31
0.0
  0
LINE
  5
F9
330
1F
100
AcDbEntity
  8
0
  6
Continuous
 62
     7
370
    30
100
AcDbLine
 10
7.0152659473
 20
5.3044448651
 30
0.0
 11
6.9907660037
 21
5.2902997618
 31
0.0
  0
LINE
  5
FA
330
1F
100
AcDbEntity
  8
0
  6
Continuous
 62
     7
370
    30
100
AcDbLine
 10
7.1807659288
 20
5.2347442436
 30
0.0
 11
7.1562659851
 21
5.2488892002
 31
0.0
  0
LINE
  5
FB
330
1F
100
AcDbEntity
  8
0
  6
Continuous
 62
     7
370
    30
100
AcDbLine
 10
7.0152659473
 20
5.2488892002
 30
0.0
 11
6.9907660037
 21
5.2347442436
 31
0.0
  0
LINE
  5
FC
330
1F
100
AcDbEntity
  8
0
  6
Continuous
 62
     7
370
    30
100
AcDbLine
 10
6.9907660037
 20
5.2347442436
 30
0.0
 11
7.0152659473
 21
5.2205991403
 31
0.0
  0
LINE
  5
FD
330
1F
100
AcDbEntity
  8
0
  6
Continuous
 62
     7
370
    30
100
AcDbLine
 10
7.1562659851
 20
5.2205991403
 30
0.0
 11
7.1807659288
 21
5.2347442436
 31
0.0
  0
LINE
  5
FE
330
1F
100
AcDbEntity
  8
0
  6
Continuous
 62
     7
370
    30
100
AcDbLine
 10
7.1807659288
 20
5.1791885787
 30
0.0
 11
7.1562659851
 21
5.193333682
 31
0.0
  0
LINE
  5
FF
330
1F
100
AcDbEntity
  8
0
  6
Continuous
 62
     7
370
    30
100
AcDbLine
 10
7.0152659473
 20
5.193333682
 30
0.0
 11
6.9907660037
 21
5.1791885787
 31
0.0
  0
LINE
  5
100
330
1F
100
AcDbEntity
  8
0
  6
Continuous
 62
     7
370
    30
100
AcDbLine
 10
6.9907660037
 20
5.1791885787
 30
0.0
 11
7.0152659473
 21
5.1650434754
 31
0.0
  0
LINE
  5
101
330
1F
100
AcDbEntity
  8
0
  6
Continuous
 62
     7
370
    30
100
AcDbLine
 10
7.1562659851
 20
5.1650434754
 30
0.0
 11
7.1807659288
 21
5.1791885787
 31
0.0
  0
LINE
  5
102
330
1F
100
AcDbEntity
  8
0
  6
Continuous
 62
     7
370
    30
100
AcDbLine
 10
7.1807659288
 20
5.1236330605
 30
0.0
 11
7.1562659851
 21
5.1377781637
 31
0.0
  0
LINE
  5
103
330
1F
100
AcDbEntity
  8
0
  6
Continuous
 62
     7
370
    30
100
AcDbLine
 10
7.0152659473
 20
5.1377781637
 30
0.0
 11
6.9907660037
 21
5.1236330605
 31
0.0
  0
LINE
  5
104
330
1F
100
AcDbEntity
  8
0
  6
Continuous
 62
     7
370
    30
100
AcDbLine
 10
6.9907660037
 20
5.1236330605
 30
0.0
 11
7.0152659473
 21
5.1094879572
 31
0.0
  0
LINE
  5
105
330
1F
100
AcDbEntity
  8
0
  6
Continuous
 62
     7
370
    30
100
AcDbLine
 10
7.1562659851
 20
5.1094879572
 30
0.0
 11
7.1807659288
 21
5.1236330605
 31
0.0
  0
LINE
  5
106
330
1F
100
AcDbEntity
  8
0
  6
Continuous
 62
     7
370
    30
100
AcDbLine
 10
7.1807659288
 20
5.0680775423
 30
0.0
 11
7.1562659851
 21
5.0822226455
 31
0.0
  0
LINE
  5
107
330
1F
100
AcDbEntity
  8
0
  6
Continuous
 62
     7
370
    30
100
AcDbLine
 10
7.0152659473
 20
5.0822226455
 30
0.0
 11
6.9907660037
 21
5.0680775423
 31
0.0
  0
LINE
  5
108
330
1F
100
AcDbEntity
  8
0
  6
Continuous
 62
     7
370
    30
100
AcDbLine
 10
6.9907660037
 20
5.0680775423
 30
0.0
 11
7.0152659473
 21
5.053932439
 31
0.0
  0
LINE
  5
109
330
1F
100
AcDbEntity
  8
0
  6
Continuous
 62
     7
370
    30
100
AcDbLine
 10
7.1562659851
 20
5.053932439
 30
0.0
 11
7.1807659288
 21
5.0680775423
 31
0.0
  0
LINE
  5
10A
330
1F
100
AcDbEntity
  8
0
  6
Continuous
 62
     7
370
    30
100
AcDbLine
 10
7.1678718777
 20
5.0199664447
 30
0.0
 11
7.1562659851
 21
5.0266669806
 31
0.0
  0
LINE
  5
10B
330
1F
100
AcDbEntity
  8
0
  6
Continuous
 62
     7
370
    30
100
AcDbLine
 10
7.0152659473
 20
5.0266669806
 30
0.0
 11
7.0036602014
 21
5.0199664447
 31
0.0
  0
LINE
  5
10C
330
1F
100
AcDbEntity
  8
0
  6
Continuous
 62
     7
370
    30
100
AcDbLine
 10
7.1562659851
 20
7.2867643785
 30
0.0
 11
7.0857660396
 21
7.4569664389
 31
0.0
  0
LINE
  5
10D
330
1F
100
AcDbEntity
  8
0
  6
Continuous
 62
     7
370
    30
100
AcDbLine
 10
7.0857660396
 20
7.4569664389
 30
0.0
 11
7.0152659473
 21
7.2867643785
 31
0.0
  0
LINE
  5
10E
330
1F
100
AcDbEntity
  8
0
  6
Continuous
 62
     7
370
    30
100
AcDbLine
 10
7.1562659851
 20
7.253879745
 30
0.0
 11
7.1562659851
 21
7.2867643785
 31
0.0
  0
LINE
  5
10F
330
1F
100
AcDbEntity
  8
0
  6
Continuous
 62
     7
370
    30
100
AcDbLine
 10
7.0152659473
 20
7.2867643785
 30
0.0
 11
7.0152659473
 21
7.253879745
 31
0.0
  0
LINE
  5
110
330
1F
100
AcDbEntity
  8
0
  6
Continuous
 62
     7
370
    30
100
AcDbLine
 10
7.1562659851
 20
7.1377782862
 30
0.0
 11
7.1562659851
 21
7.1650435979
 31
0.0
  0
LINE
  5
111
330
1F
100
AcDbEntity
  8
0
  6
Continuous
 62
     7
370
    30
100
AcDbLine
 10
7.0152659473
 20
7.1650435979
 30
0.0
 11
7.0152659473
 21
7.1377782862
 31
0.0
  0
LINE
  5
112
330
1F
100
AcDbEntity
  8
0
  6
Continuous
 62
     7
370
    30
100
AcDbLine
 10
7.1562659851
 20
7.0822224747
 30
0.0
 11
7.1562659851
 21
7.1094880797
 31
0.0
  0
LINE
  5
113
330
1F
100
AcDbEntity
  8
0
  6
Continuous
 62
     7
370
    30
100
AcDbLine
 10
7.0152659473
 20
7.1094880797
 30
0.0
 11
7.0152659473
 21
7.0822224747
 31
0.0
  0
LINE
  5
114
330
1F
100
AcDbEntity
  8
0
  6
Continuous
 62
     7
370
    30
100
AcDbLine
 10
7.1562659851
 20
7.0266669565
 30
0.0
 11
7.1562659851
 21
7.0539325615
 31
0.0
  0
LINE
  5
115
330
1F
100
AcDbEntity
  8
0
  6
Continuous
 62
     7
370
    30
100
AcDbLine
 10
7.0152659473
 20
7.0539325615
 30
0.0
 11
7.0152659473
 21
7.0266669565
 31
0.0
  0
LINE
  5
116
330
1F
100
AcDbEntity
  8
0
  6
Continuous
 62
     7
370
    30
100
AcDbLine
 10
7.1562659851
 20
6.9711114382
 30
0.0
 11
7.1562659851
 21
6.9983767499
 31
0.0
  0
LINE
  5
117
330
1F
100
AcDbEntity
  8
0
  6
Continuous
 62
     7
370
    30
100
AcDbLine
 10
7.0152659473
 20
6.9983767499
 30
0.0
 11
7.0152659473
 21
6.9711114382
 31
0.0
  0
LINE
  5
118
330
1F
100
AcDbEntity
  8
0
  6
Continuous
 62
     7
370
    30
100
AcDbLine
 10
7.1562659851
 20
6.91555592
 30
0.0
 11
7.1562659851
 21
6.9428212317
 31
0.0
  0
LINE
  5
119
330
1F
100
AcDbEntity
  8
0
  6
Continuous
 62
     7
370
    30
100
AcDbLine
 10
7.0152659473
 20
6.9428212317
 30
0.0
 11
7.0152659473
 21
6.91555592
 31
0.0
  0
LINE
  5
11A
330
1F
100
AcDbEntity
  8
0
  6
Continuous
 62
     7
370
    30
100
AcDbLine
 10
7.1562659851
 20
6.8600004018
 30
0.0
 11
7.1562659851
 21
6.8872657135
 31
0.0
  0
LINE
  5
11B
330
1F
100
AcDbEntity
  8
0
  6
Continuous
 62
     7
370
    30
100
AcDbLine
 10
7.0152659473
 20
6.8872657135
 30
0.0
 11
7.0152659473
 21
6.8600004018
 31
0.0
  0
LINE
  5
11C
330
1F
100
AcDbEntity
  8
0
  6
Continuous
 62
     7
370
    30
100
AcDbLine
 10
7.1562659851
 20
6.8044448836
 30
0.0
 11
7.1562659851
 21
6.8317101953
 31
0.0
  0
LINE
  5
11D
330
1F
100
AcDbEntity
  8
0
  6
Continuous
 62
     7
370
    30
100
AcDbLine
 10
7.0152659473
 20
6.8317101953
 30
0.0
 11
7.0152659473
 21
6.8044448836
 31
0.0
  0
LINE
  5
11E
330
1F
100
AcDbEntity
  8
0
  6
Continuous
 62
     7
370
    30
100
AcDbLine
 10
7.1562659851
 20
6.7488893654
 30
0.0
 11
7.1562659851
 21
6.7761546771
 31
0.0
  0
LINE
  5
11F
330
1F
100
AcDbEntity
  8
0
  6
Continuous
 62
     7
370
    30
100
AcDbLine
 10
7.0152659473
 20
6.7761546771
 30
0.0
 11
7.0152659473
 21
6.7488893654
 31
0.0
  0
LINE
  5
120
330
1F
100
AcDbEntity
  8
0
  6
Continuous
 62
     7
370
    30
100
AcDbLine
 10
7.1562659851
 20
6.6933335538
 30
0.0
 11
7.1562659851
 21
6.7205991589
 31
0.0
  0
LINE
  5
121
330
1F
100
AcDbEntity
  8
0
  6
Continuous
 62
     7
370
    30
100
AcDbLine
 10
7.0152659473
 20
6.7205991589
 30
0.0
 11
7.0152659473
 21
6.6933335538
 31
0.0
  0
LINE
  5
122
330
1F
100
AcDbEntity
  8
0
  6
Continuous
 62
     7
370
    30
100
AcDbLine
 10
7.1562659851
 20
6.6377780356
 30
0.0
 11
7.1562659851
 21
6.6650436406
 31
0.0
  0
LINE
  5
123
330
1F
100
AcDbEntity
  8
0
  6
Continuous
 62
     7
370
    30
100
AcDbLine
 10
7.0152659473
 20
6.6650436406
 30
0.0
 11
7.0152659473
 21
6.6377780356
 31
0.0
  0
LINE
  5
124
330
1F
100
AcDbEntity
  8
0
  6
Continuous
 62
     7
370
    30
100
AcDbLine
 10
7.1562659851
 20
6.5822225174
 30
0.0
 11
7.1562659851
 21
6.6094881224
 31
0.0
  0
LINE
  5
125
330
1F
100
AcDbEntity
  8
0
  6
Continuous
 62
     7
370
    30
100
AcDbLine
 10
7.0152659473
 20
6.6094881224
 30
0.0
 11
7.0152659473
 21
6.5822225174
 31
0.0
  0
LINE
  5
126
330
1F
100
AcDbEntity
  8
0
  6
Continuous
 62
     7
370
    30
100
AcDbLine
 10
7.1562659851
 20
6.5266669992
 30
0.0
 11
7.1562659851
 21
6.5539323109
 31
0.0
  0
LINE
  5
127
330
1F
100
AcDbEntity
  8
0
  6
Continuous
 62
     7
370
    30
100
AcDbLine
 10
7.0152659473
 20
6.5539323109
 30
0.0
 11
7.0152659473
 21
6.5266669992
 31
0.0
  0
LINE
  5
128
330
1F
100
AcDbEntity
  8
0
  6
Continuous
 62
     7
370
    30
100
AcDbLine
 10
7.1562659851
 20
6.471111481
 30
0.0
 11
7.1562659851
 21
6.4983767926
 31
0.0
  0
LINE
  5
129
330
1F
100
AcDbEntity
  8
0
  6
Continuous
 62
     7
370
    30
100
AcDbLine
 10
7.0152659473
 20
6.4983767926
 30
0.0
 11
7.0152659473
 21
6.471111481
 31
0.0
  0
LINE
  5
12A
330
1F
100
AcDbEntity
  8
0
  6
Continuous
 62
     7
370
    30
100
AcDbLine
 10
7.1562659851
 20
6.4155559627
 30
0.0
 11
7.1562659851
 21
6.4428212744
 31
0.0
  0
LINE
  5
12B
330
1F
100
AcDbEntity
  8
0
  6
Continuous
 62
     7
370
    30
100
AcDbLine
 10
7.0152659473
 20
6.4428212744
 30
0.0
 11
7.0152659473
 21
6.4155559627
 31
0.0
  0
LINE
  5
12C
330
1F
100
AcDbEntity
  8
0
  6
Continuous
 62
     7
370
    30
100
AcDbLine
 10
7.1562659851
 20
6.3600004445
 30
0.0
 11
7.1562659851
 21
6.3872657562
 31
0.0
  0
LINE
  5
12D
330
1F
100
AcDbEntity
  8
0
  6
Continuous
 62
     7
370
    30
100
AcDbLine
 10
7.0152659473
 20
6.3872657562
 30
0.0
 11
7.0152659473
 21
6.3600004445
 31
0.0
  0
LINE
  5
12E
330
1F
100
AcDbEntity
  8
0
  6
Continuous
 62
     7
370
    30
100
AcDbLine
 10
7.1562659851
 20
6.3044449263
 30
0.0
 11
7.1562659851
 21
6.331710238
 31
0.0
  0
LINE
  5
12F
330
1F
100
AcDbEntity
  8
0
  6
Continuous
 62
     7
370
    30
100
AcDbLine
 10
7.0152659473
 20
6.331710238
 30
0.0
 11
7.0152659473
 21
6.3044449263
 31
0.0
  0
LINE
  5
130
330
1F
100
AcDbEntity
  8
0
  6
Continuous
 62
     7
370
    30
100
AcDbLine
 10
7.1562659851
 20
6.2488891148
 30
0.0
 11
7.1562659851
 21
6.2761547198
 31
0.0
  0
LINE
  5
131
330
1F
100
AcDbEntity
  8
0
  6
Continuous
 62
     7
370
    30
100
AcDbLine
 10
7.0152659473
 20
6.2761547198
 30
0.0
 11
7.0152659473
 21
6.2488891148
 31
0.0
  0
LINE
  5
132
330
1F
100
AcDbEntity
  8
0
  6
Continuous
 62
     7
370
    30
100
AcDbLine
 10
7.1562659851
 20
6.1933335965
 30
0.0
 11
7.1562659851
 21
6.2205992016
 31
0.0
  0
LINE
  5
133
330
1F
100
AcDbEntity
  8
0
  6
Continuous
 62
     7
370
    30
100
AcDbLine
 10
7.0152659473
 20
6.2205992016
 30
0.0
 11
7.0152659473
 21
6.1933335965
 31
0.0
  0
LINE
  5
134
330
1F
100
AcDbEntity
  8
0
  6
Continuous
 62
     7
370
    30
100
AcDbLine
 10
7.1562659851
 20
6.1377780783
 30
0.0
 11
7.1562659851
 21
6.1650436833
 31
0.0
  0
LINE
  5
135
330
1F
100
AcDbEntity
  8
0
  6
Continuous
 62
     7
370
    30
100
AcDbLine
 10
7.0152659473
 20
6.1650436833
 30
0.0
 11
7.0152659473
 21
6.1377780783
 31
0.0
  0
LINE
  5
136
330
1F
100
AcDbEntity
  8
0
  6
Continuous
 62
     7
370
    30
100
AcDbLine
 10
7.1562659851
 20
6.0822225601
 30
0.0
 11
7.1562659851
 21
6.1094878718
 31
0.0
  0
LINE
  5
137
330
1F
100
AcDbEntity
  8
0
  6
Continuous
 62
     7
370
    30
100
AcDbLine
 10
7.0152659473
 20
6.1094878718
 30
0.0
 11
7.0152659473
 21
6.0822225601
 31
0.0
  0
LINE
  5
138
330
1F
100
AcDbEntity
  8
0
  6
Continuous
 62
     7
370
    30
100
AcDbLine
 10
7.1562659851
 20
6.0266670419
 30
0.0
 11
7.1562659851
 21
6.0539323536
 31
0.0
  0
LINE
  5
139
330
1F
100
AcDbEntity
  8
0
  6
Continuous
 62
     7
370
    30
100
AcDbLine
 10
7.0152659473
 20
6.0539323536
 30
0.0
 11
7.0152659473
 21
6.0266670419
 31
0.0
  0
LINE
  5
13A
330
1F
100
AcDbEntity
  8
0
  6
Continuous
 62
     7
370
    30
100
AcDbLine
 10
7.1562659851
 20
5.9711115237
 30
0.0
 11
7.1562659851
 21
5.9983768354
 31
0.0
  0
LINE
  5
13B
330
1F
100
AcDbEntity
  8
0
  6
Continuous
 62
     7
370
    30
100
AcDbLine
 10
7.0152659473
 20
5.9983768354
 30
0.0
 11
7.0152659473
 21
5.9711115237
 31
0.0
  0
LINE
  5
13C
330
1F
100
AcDbEntity
  8
0
  6
Continuous
 62
     7
370
    30
100
AcDbLine
 10
7.1562659851
 20
5.9155560054
 30
0.0
 11
7.1562659851
 21
5.9428213171
 31
0.0
  0
LINE
  5
13D
330
1F
100
AcDbEntity
  8
0
  6
Continuous
 62
     7
370
    30
100
AcDbLine
 10
7.0152659473
 20
5.9428213171
 30
0.0
 11
7.0152659473
 21
5.9155560054
 31
0.0
  0
LINE
  5
13E
330
1F
100
AcDbEntity
  8
0
  6
Continuous
 62
     7
370
    30
100
AcDbLine
 10
7.1562659851
 20
5.8600004872
 30
0.0
 11
7.1562659851
 21
5.8872657989
 31
0.0
  0
LINE
  5
13F
330
1F
100
AcDbEntity
  8
0
  6
Continuous
 62
     7
370
    30
100
AcDbLine
 10
7.0152659473
 20
5.8872657989
 30
0.0
 11
7.0152659473
 21
5.8600004872
 31
0.0
  0
LINE
  5
140
330
1F
100
AcDbEntity
  8
0
  6
Continuous
 62
     7
370
    30
100
AcDbLine
 10
7.1562659851
 20
5.8044446757
 30
0.0
 11
7.1562659851
 21
5.8317102807
 31
0.0
  0
LINE
  5
141
330
1F
100
AcDbEntity
  8
0
  6
Continuous
 62
     7
370
    30
100
AcDbLine
 10
7.0152659473
 20
5.8317102807
 30
0.0
 11
7.0152659473
 21
5.8044446757
 31
0.0
  0
LINE
  5
142
330
1F
100
AcDbEntity
  8
0
  6
Continuous
 62
     7
370
    30
100
AcDbLine
 10
7.1562659851
 20
5.7488891575
 30
0.0
 11
7.1562659851
 21
5.7761547625
 31
0.0
  0
LINE
  5
143
330
1F
100
AcDbEntity
  8
0
  6
Continuous
 62
     7
370
    30
100
AcDbLine
 10
7.0152659473
 20
5.7761547625
 30
0.0
 11
7.0152659473
 21
5.7488891575
 31
0.0
  0
LINE
  5
144
330
1F
100
AcDbEntity
  8
0
  6
Continuous
 62
     7
370
    30
100
AcDbLine
 10
7.1562659851
 20
5.6933336392
 30
0.0
 11
7.1562659851
 21
5.7205989509
 31
0.0
  0
LINE
  5
145
330
1F
100
AcDbEntity
  8
0
  6
Continuous
 62
     7
370
    30
100
AcDbLine
 10
7.0152659473
 20
5.7205989509
 30
0.0
 11
7.0152659473
 21
5.6933336392
 31
0.0
  0
LINE
  5
146
330
1F
100
AcDbEntity
  8
0
  6
Continuous
 62
     7
370
    30
100
AcDbLine
 10
7.1562659851
 20
5.637778121
 30
0.0
 11
7.1562659851
 21
5.6650434327
 31
0.0
  0
LINE
  5
147
330
1F
100
AcDbEntity
  8
0
  6
Continuous
 62
     7
370
    30
100
AcDbLine
 10
7.0152659473
 20
5.6650434327
 30
0.0
 11
7.0152659473
 21
5.637778121
 31
0.0
  0
LINE
  5
148
330
1F
100
AcDbEntity
  8
0
  6
Continuous
 62
     7
370
    30
100
AcDbLine
 10
7.1562659851
 20
5.5822226028
 30
0.0
 11
7.1562659851
 21
5.6094879145
 31
0.0
  0
LINE
  5
149
330
1F
100
AcDbEntity
  8
0
  6
Continuous
 62
     7
370
    30
100
AcDbLine
 10
7.0152659473
 20
5.6094879145
 30
0.0
 11
7.0152659473
 21
5.5822226028
 31
0.0
  0
LINE
  5
14A
330
1F
100
AcDbEntity
  8
0
  6
Continuous
 62
     7
370
    30
100
AcDbLine
 10
7.1562659851
 20
5.5266670846
 30
0.0
 11
7.1562659851
 21
5.5539323963
 31
0.0
  0
LINE
  5
14B
330
1F
100
AcDbEntity
  8
0
  6
Continuous
 62
     7
370
    30
100
AcDbLine
 10
7.0152659473
 20
5.5539323963
 30
0.0
 11
7.0152659473
 21
5.5266670846
 31
0.0
  0
LINE
  5
14C
330
1F
100
AcDbEntity
  8
0
  6
Continuous
 62
     7
370
    30
100
AcDbLine
 10
7.1562659851
 20
5.4711114197
 30
0.0
 11
7.1562659851
 21
5.4983768781
 31
0.0
  0
LINE
  5
14D
330
1F
100
AcDbEntity
  8
0
  6
Continuous
 62
     7
370
    30
100
AcDbLine
 10
7.0152659473
 20
5.4983768781
 30
0.0
 11
7.0152659473
 21
5.4711114197
 31
0.0
  0
LINE
  5
14E
330
1F
100
AcDbEntity
  8
0
  6
Continuous
 62
     7
370
    30
100
AcDbLine
 10
7.1562659851
 20
5.4155559015
 30
0.0
 11
7.1562659851
 21
5.4428213598
 31
0.0
  0
LINE
  5
14F
330
1F
100
AcDbEntity
  8
0
  6
Continuous
 62
     7
370
    30
100
AcDbLine
 10
7.0152659473
 20
5.4428213598
 30
0.0
 11
7.0152659473
 21
5.4155559015
 31
0.0
  0
LINE
  5
150
330
1F
100
AcDbEntity
  8
0
  6
Continuous
 62
     7
370
    30
100
AcDbLine
 10
7.1562659851
 20
5.3600003833
 30
0.0
 11
7.1562659851
 21
5.387265695
 31
0.0
  0
LINE
  5
151
330
1F
100
AcDbEntity
  8
0
  6
Continuous
 62
     7
370
    30
100
AcDbLine
 10
7.0152659473
 20
5.387265695
 30
0.0
 11
7.0152659473
 21
5.3600003833
 31
0.0
  0
LINE
  5
152
330
1F
100
AcDbEntity
  8
0
  6
Continuous
 62
     7
370
    30
100
AcDbLine
 10
7.1562659851
 20
5.3044448651
 30
0.0
 11
7.1562659851
 21
5.3317101767
 31
0.0
  0
LINE
  5
153
330
1F
100
AcDbEntity
  8
0
  6
Continuous
 62
     7
370
    30
100
AcDbLine
 10
7.0152659473
 20
5.3317101767
 30
0.0
 11
7.0152659473
 21
5.3044448651
 31
0.0
  0
LINE
  5
154
330
1F
100
AcDbEntity
  8
0
  6
Continuous
 62
     7
370
    30
100
AcDbLine
 10
7.1562659851
 20
5.2488892002
 30
0.0
 11
7.1562659851
 21
5.2761546585
 31
0.0
  0
LINE
  5
155
330
1F
100
AcDbEntity
  8
0
  6
Continuous
 62
     7
370
    30
100
AcDbLine
 10
7.0152659473
 20
5.2761546585
 30
0.0
 11
7.0152659473
 21
5.2488892002
 31
0.0
  0
LINE
  5
156
330
1F
100
AcDbEntity
  8
0
  6
Continuous
 62
     7
370
    30
100
AcDbLine
 10
7.1562659851
 20
5.193333682
 30
0.0
 11
7.1562659851
 21
5.2205991403
 31
0.0
  0
LINE
  5
157
330
1F
100
AcDbEntity
  8
0
  6
Continuous
 62
     7
370
    30
100
AcDbLine
 10
7.0152659473
 20
5.2205991403
 30
0.0
 11
7.0152659473
 21
5.193333682
 31
0.0
  0
LINE
  5
158
330
1F
100
AcDbEntity
  8
0
  6
Continuous
 62
     7
370
    30
100
AcDbLine
 10
7.1562659851
 20
5.1377781637
 30
0.0
 11
7.1562659851
 21
5.1650434754
 31
0.0
  0
LINE
  5
159
330
1F
100
AcDbEntity
  8
0
  6
Continuous
 62
     7
370
    30
100
AcDbLine
 10
7.0152659473
 20
5.1650434754
 30
0.0
 11
7.0152659473
 21
5.1377781637
 31
0.0
  0
LINE
  5
15A
330
1F
100
AcDbEntity
  8
0
  6
Continuous
 62
     7
370
    30
100
AcDbLine
 10
7.1562659851
 20
5.0822226455
 30
0.0
 11
7.1562659851
 21
5.1094879572
 31
0.0
  0
LINE
  5
15B
330
1F
100
AcDbEntity
  8
0
  6
Continuous
 62
     7
370
    30
100
AcDbLine
 10
7.0152659473
 20
5.1094879572
 30
0.0
 11
7.0152659473
 21
5.0822226455
 31
0.0
  0
LINE
  5
15C
330
1F
100
AcDbEntity
  8
0
  6
Continuous
 62
     7
370
    30
100
AcDbLine
 10
7.1562659851
 20
5.0266669806
 30
0.0
 11
7.1562659851
 21
5.053932439
 31
0.0
  0
LINE
  5
15D
330
1F
100
AcDbEntity
  8
0
  6
Continuous
 62
     7
370
    30
100
AcDbLine
 10
7.0152659473
 20
5.053932439
 30
0.0
 11
7.0152659473
 21
5.0266669806
 31
0.0
  0
LINE
  5
15E
330
1F
100
AcDbEntity
  8
0
  6
Continuous
 62
     7
370
    30
100
AcDbLine
 10
3.2534254178
 20
7.1718796523
 30
0.0
 11
3.2652659743
 21
7.1650435979
 31
0.0
  0
LINE
  5
15F
330
1F
100
AcDbEntity
  8
0
  6
Continuous
 62
     7
370
    30
100
AcDbLine
 10
3.4062660121
 20
7.1650435979
 30
0.0
 11
3.4181065687
 21
7.1718796523
 31
0.0
  0
LINE
  5
160
330
1F
100
AcDbEntity
  8
0
  6
Continuous
 62
     7
370
    30
100
AcDbLine
 10
3.4307659558
 20
7.1236330363
 30
0.0
 11
3.4062660121
 21
7.1377782862
 31
0.0
  0
LINE
  5
161
330
1F
100
AcDbEntity
  8
0
  6
Continuous
 62
     7
370
    30
100
AcDbLine
 10
3.2652659743
 20
7.1377782862
 30
0.0
 11
3.2407660307
 21
7.1236330363
 31
0.0
  0
LINE
  5
162
330
1F
100
AcDbEntity
  8
0
  6
Continuous
 62
     7
370
    30
100
AcDbLine
 10
3.4307659558
 20
7.0680775181
 30
0.0
 11
3.4062660121
 21
7.0822224747
 31
0.0
  0
LINE
  5
163
330
1F
100
AcDbEntity
  8
0
  6
Continuous
 62
     7
370
    30
100
AcDbLine
 10
3.2652659743
 20
7.0822224747
 30
0.0
 11
3.2407660307
 21
7.0680775181
 31
0.0
  0
LINE
  5
164
330
1F
100
AcDbEntity
  8
0
  6
Continuous
 62
     7
370
    30
100
AcDbLine
 10
3.2407660307
 20
7.1236330363
 30
0.0
 11
3.2652659743
 21
7.1094880797
 31
0.0
  0
LINE
  5
165
330
1F
100
AcDbEntity
  8
0
  6
Continuous
 62
     7
370
    30
100
AcDbLine
 10
3.4062660121
 20
7.1094880797
 30
0.0
 11
3.4307659558
 21
7.1236330363
 31
0.0
  0
LINE
  5
166
330
1F
100
AcDbEntity
  8
0
  6
Continuous
 62
     7
370
    30
100
AcDbLine
 10
3.2407660307
 20
7.0680775181
 30
0.0
 11
3.2652659743
 21
7.0539325615
 31
0.0
  0
LINE
  5
167
330
1F
100
AcDbEntity
  8
0
  6
Continuous
 62
     7
370
    30
100
AcDbLine
 10
3.4062660121
 20
7.0539325615
 30
0.0
 11
3.4307659558
 21
7.0680775181
 31
0.0
  0
LINE
  5
168
330
1F
100
AcDbEntity
  8
0
  6
Continuous
 62
     7
370
    30
100
AcDbLine
 10
3.4307659558
 20
7.0125219999
 30
0.0
 11
3.4062660121
 21
7.0266669565
 31
0.0
  0
LINE
  5
169
330
1F
100
AcDbEntity
  8
0
  6
Continuous
 62
     7
370
    30
100
AcDbLine
 10
3.2652659743
 20
7.0266669565
 30
0.0
 11
3.2407660307
 21
7.0125219999
 31
0.0
  0
LINE
  5
16A
330
1F
100
AcDbEntity
  8
0
  6
Continuous
 62
     7
370
    30
100
AcDbLine
 10
3.2407660307
 20
7.0125219999
 30
0.0
 11
3.2652659743
 21
6.9983767499
 31
0.0
  0
LINE
  5
16B
330
1F
100
AcDbEntity
  8
0
  6
Continuous
 62
     7
370
    30
100
AcDbLine
 10
3.4062660121
 20
6.9983767499
 30
0.0
 11
3.4307659558
 21
7.0125219999
 31
0.0
  0
LINE
  5
16C
330
1F
100
AcDbEntity
  8
0
  6
Continuous
 62
     7
370
    30
100
AcDbLine
 10
3.2407660307
 20
6.9569664816
 30
0.0
 11
3.2652659743
 21
6.9428212317
 31
0.0
  0
LINE
  5
16D
330
1F
100
AcDbEntity
  8
0
  6
Continuous
 62
     7
370
    30
100
AcDbLine
 10
3.4062660121
 20
6.9428212317
 30
0.0
 11
3.4307659558
 21
6.9569664816
 31
0.0
  0
LINE
  5
16E
330
1F
100
AcDbEntity
  8
0
  6
Continuous
 62
     7
370
    30
100
AcDbLine
 10
3.4307659558
 20
6.9569664816
 30
0.0
 11
3.4062660121
 21
6.9711114382
 31
0.0
  0
LINE
  5
16F
330
1F
100
AcDbEntity
  8
0
  6
Continuous
 62
     7
370
    30
100
AcDbLine
 10
3.2652659743
 20
6.9711114382
 30
0.0
 11
3.2407660307
 21
6.9569664816
 31
0.0
  0
LINE
  5
170
330
1F
100
AcDbEntity
  8
0
  6
Continuous
 62
     7
370
    30
100
AcDbLine
 10
3.2407660307
 20
6.9014109634
 30
0.0
 11
3.2652659743
 21
6.8872657135
 31
0.0
  0
LINE
  5
171
330
1F
100
AcDbEntity
  8
0
  6
Continuous
 62
     7
370
    30
100
AcDbLine
 10
3.4062660121
 20
6.8872657135
 30
0.0
 11
3.4307659558
 21
6.9014109634
 31
0.0
  0
LINE
  5
172
330
1F
100
AcDbEntity
  8
0
  6
Continuous
 62
     7
370
    30
100
AcDbLine
 10
3.4307659558
 20
6.9014109634
 30
0.0
 11
3.4062660121
 21
6.91555592
 31
0.0
  0
LINE
  5
173
330
1F
100
AcDbEntity
  8
0
  6
Continuous
 62
     7
370
    30
100
AcDbLine
 10
3.2652659743
 20
6.91555592
 30
0.0
 11
3.2407660307
 21
6.9014109634
 31
0.0
  0
LINE
  5
174
330
1F
100
AcDbEntity
  8
0
  6
Continuous
 62
     7
370
    30
100
AcDbLine
 10
3.2407660307
 20
6.8458551519
 30
0.0
 11
3.2652659743
 21
6.8317101953
 31
0.0
  0
LINE
  5
175
330
1F
100
AcDbEntity
  8
0
  6
Continuous
 62
     7
370
    30
100
AcDbLine
 10
3.4062660121
 20
6.8317101953
 30
0.0
 11
3.4307659558
 21
6.8458551519
 31
0.0
  0
LINE
  5
176
330
1F
100
AcDbEntity
  8
0
  6
Continuous
 62
     7
370
    30
100
AcDbLine
 10
3.4307659558
 20
6.8458551519
 30
0.0
 11
3.4062660121
 21
6.8600004018
 31
0.0
  0
LINE
  5
177
330
1F
100
AcDbEntity
  8
0
  6
Continuous
 62
     7
370
    30
100
AcDbLine
 10
3.2652659743
 20
6.8600004018
 30
0.0
 11
3.2407660307
 21
6.8458551519
 31
0.0
  0
LINE
  5
178
330
1F
100
AcDbEntity
  8
0
  6
Continuous
 62
     7
370
    30
100
AcDbLine
 10
3.2407660307
 20
6.7902996337
 30
0.0
 11
3.2652659743
 21
6.7761546771
 31
0.0
  0
LINE
  5
179
330
1F
100
AcDbEntity
  8
0
  6
Continuous
 62
     7
370
    30
100
AcDbLine
 10
3.4062660121
 20
6.7761546771
 30
0.0
 11
3.4307659558
 21
6.7902996337
 31
0.0
  0
LINE
  5
17A
330
1F
100
AcDbEntity
  8
0
  6
Continuous
 62
     7
370
    30
100
AcDbLine
 10
3.4307659558
 20
6.7902996337
 30
0.0
 11
3.4062660121
 21
6.8044448836
 31
0.0
  0
LINE
  5
17B
330
1F
100
AcDbEntity
  8
0
  6
Continuous
 62
     7
370
    30
100
AcDbLine
 10
3.2652659743
 20
6.8044448836
 30
0.0
 11
3.2407660307
 21
6.7902996337
 31
0.0
  0
LINE
  5
17C
330
1F
100
AcDbEntity
  8
0
  6
Continuous
 62
     7
370
    30
100
AcDbLine
 10
3.4307659558
 20
6.7347441154
 30
0.0
 11
3.4062660121
 21
6.7488893654
 31
0.0
  0
LINE
  5
17D
330
1F
100
AcDbEntity
  8
0
  6
Continuous
 62
     7
370
    30
100
AcDbLine
 10
3.2652659743
 20
6.7488893654
 30
0.0
 11
3.2407660307
 21
6.7347441154
 31
0.0
  0
LINE
  5
17E
330
1F
100
AcDbEntity
  8
0
  6
Continuous
 62
     7
370
    30
100
AcDbLine
 10
3.2407660307
 20
6.7347441154
 30
0.0
 11
3.2652659743
 21
6.7205991589
 31
0.0
  0
LINE
  5
17F
330
1F
100
AcDbEntity
  8
0
  6
Continuous
 62
     7
370
    30
100
AcDbLine
 10
3.4062660121
 20
6.7205991589
 30
0.0
 11
3.4307659558
 21
6.7347441154
 31
0.0
  0
LINE
  5
180
330
1F
100
AcDbEntity
  8
0
  6
Continuous
 62
     7
370
    30
100
AcDbLine
 10
3.4307659558
 20
6.6791885972
 30
0.0
 11
3.4062660121
 21
6.6933335538
 31
0.0
  0
LINE
  5
181
330
1F
100
AcDbEntity
  8
0
  6
Continuous
 62
     7
370
    30
100
AcDbLine
 10
3.2652659743
 20
6.6933335538
 30
0.0
 11
3.2407660307
 21
6.6791885972
 31
0.0
  0
LINE
  5
182
330
1F
100
AcDbEntity
  8
0
  6
Continuous
 62
     7
370
    30
100
AcDbLine
 10
3.2407660307
 20
6.6791885972
 30
0.0
 11
3.2652659743
 21
6.6650436406
 31
0.0
  0
LINE
  5
183
330
1F
100
AcDbEntity
  8
0
  6
Continuous
 62
     7
370
    30
100
AcDbLine
 10
3.4062660121
 20
6.6650436406
 30
0.0
 11
3.4307659558
 21
6.6791885972
 31
0.0
  0
LINE
  5
184
330
1F
100
AcDbEntity
  8
0
  6
Continuous
 62
     7
370
    30
100
AcDbLine
 10
3.2407660307
 20
6.623633079
 30
0.0
 11
3.2652659743
 21
6.6094881224
 31
0.0
  0
LINE
  5
185
330
1F
100
AcDbEntity
  8
0
  6
Continuous
 62
     7
370
    30
100
AcDbLine
 10
3.4062660121
 20
6.6094881224
 30
0.0
 11
3.4307659558
 21
6.623633079
 31
0.0
  0
LINE
  5
186
330
1F
100
AcDbEntity
  8
0
  6
Continuous
 62
     7
370
    30
100
AcDbLine
 10
3.4307659558
 20
6.623633079
 30
0.0
 11
3.4062660121
 21
6.6377780356
 31
0.0
  0
LINE
  5
187
330
1F
100
AcDbEntity
  8
0
  6
Continuous
 62
     7
370
    30
100
AcDbLine
 10
3.2652659743
 20
6.6377780356
 30
0.0
 11
3.2407660307
 21
6.623633079
 31
0.0
  0
LINE
  5
188
330
1F
100
AcDbEntity
  8
0
  6
Continuous
 62
     7
370
    30
100
AcDbLine
 10
3.2407660307
 20
6.5680775608
 30
0.0
 11
3.2652659743
 21
6.5539323109
 31
0.0
  0
LINE
  5
189
330
1F
100
AcDbEntity
  8
0
  6
Continuous
 62
     7
370
    30
100
AcDbLine
 10
3.4062660121
 20
6.5539323109
 30
0.0
 11
3.4307659558
 21
6.5680775608
 31
0.0
  0
LINE
  5
18A
330
1F
100
AcDbEntity
  8
0
  6
Continuous
 62
     7
370
    30
100
AcDbLine
 10
3.4307659558
 20
6.5680775608
 30
0.0
 11
3.4062660121
 21
6.5822225174
 31
0.0
  0
LINE
  5
18B
330
1F
100
AcDbEntity
  8
0
  6
Continuous
 62
     7
370
    30
100
AcDbLine
 10
3.2652659743
 20
6.5822225174
 30
0.0
 11
3.2407660307
 21
6.5680775608
 31
0.0
  0
LINE
  5
18C
330
1F
100
AcDbEntity
  8
0
  6
Continuous
 62
     7
370
    30
100
AcDbLine
 10
3.4307659558
 20
6.5125220426
 30
0.0
 11
3.4062660121
 21
6.5266669992
 31
0.0
  0
LINE
  5
18D
330
1F
100
AcDbEntity
  8
0
  6
Continuous
 62
     7
370
    30
100
AcDbLine
 10
3.2652659743
 20
6.5266669992
 30
0.0
 11
3.2407660307
 21
6.5125220426
 31
0.0
  0
LINE
  5
18E
330
1F
100
AcDbEntity
  8
0
  6
Continuous
 62
     7
370
    30
100
AcDbLine
 10
3.4307659558
 20
6.4569665244
 30
0.0
 11
3.4062660121
 21
6.471111481
 31
0.0
  0
LINE
  5
18F
330
1F
100
AcDbEntity
  8
0
  6
Continuous
 62
     7
370
    30
100
AcDbLine
 10
3.2652659743
 20
6.471111481
 30
0.0
 11
3.2407660307
 21
6.4569665244
 31
0.0
  0
LINE
  5
190
330
1F
100
AcDbEntity
  8
0
  6
Continuous
 62
     7
370
    30
100
AcDbLine
 10
3.2407660307
 20
6.5125220426
 30
0.0
 11
3.2652659743
 21
6.4983767926
 31
0.0
  0
LINE
  5
191
330
1F
100
AcDbEntity
  8
0
  6
Continuous
 62
     7
370
    30
100
AcDbLine
 10
3.4062660121
 20
6.4983767926
 30
0.0
 11
3.4307659558
 21
6.5125220426
 31
0.0
  0
LINE
  5
192
330
1F
100
AcDbEntity
  8
0
  6
Continuous
 62
     7
370
    30
100
AcDbLine
 10
3.4307659558
 20
6.4014107128
 30
0.0
 11
3.4062660121
 21
6.4155559627
 31
0.0
  0
LINE
  5
193
330
1F
100
AcDbEntity
  8
0
  6
Continuous
 62
     7
370
    30
100
AcDbLine
 10
3.2652659743
 20
6.4155559627
 30
0.0
 11
3.2407660307
 21
6.4014107128
 31
0.0
  0
LINE
  5
194
330
1F
100
AcDbEntity
  8
0
  6
Continuous
 62
     7
370
    30
100
AcDbLine
 10
3.2407660307
 20
6.4569665244
 30
0.0
 11
3.2652659743
 21
6.4428212744
 31
0.0
  0
LINE
  5
195
330
1F
100
AcDbEntity
  8
0
  6
Continuous
 62
     7
370
    30
100
AcDbLine
 10
3.4062660121
 20
6.4428212744
 30
0.0
 11
3.4307659558
 21
6.4569665244
 31
0.0
  0
LINE
  5
196
330
1F
100
AcDbEntity
  8
0
  6
Continuous
 62
     7
370
    30
100
AcDbLine
 10
3.2407660307
 20
6.4014107128
 30
0.0
 11
3.2652659743
 21
6.3872657562
 31
0.0
  0
LINE
  5
197
330
1F
100
AcDbEntity
  8
0
  6
Continuous
 62
     7
370
    30
100
AcDbLine
 10
3.4062660121
 20
6.3872657562
 30
0.0
 11
3.4307659558
 21
6.4014107128
 31
0.0
  0
LINE
  5
198
330
1F
100
AcDbEntity
  8
0
  6
Continuous
 62
     7
370
    30
100
AcDbLine
 10
3.4307659558
 20
6.3458551946
 30
0.0
 11
3.4062660121
 21
6.3600004445
 31
0.0
  0
LINE
  5
199
330
1F
100
AcDbEntity
  8
0
  6
Continuous
 62
     7
370
    30
100
AcDbLine
 10
3.2652659743
 20
6.3600004445
 30
0.0
 11
3.2407660307
 21
6.3458551946
 31
0.0
  0
LINE
  5
19A
330
1F
100
AcDbEntity
  8
0
  6
Continuous
 62
     7
370
    30
100
AcDbLine
 10
3.2407660307
 20
6.3458551946
 30
0.0
 11
3.2652659743
 21
6.331710238
 31
0.0
  0
LINE
  5
19B
330
1F
100
AcDbEntity
  8
0
  6
Continuous
 62
     7
370
    30
100
AcDbLine
 10
3.4062660121
 20
6.331710238
 30
0.0
 11
3.4307659558
 21
6.3458551946
 31
0.0
  0
LINE
  5
19C
330
1F
100
AcDbEntity
  8
0
  6
Continuous
 62
     7
370
    30
100
AcDbLine
 10
3.4307659558
 20
6.2902996764
 30
0.0
 11
3.4062660121
 21
6.3044449263
 31
0.0
  0
LINE
  5
19D
330
1F
100
AcDbEntity
  8
0
  6
Continuous
 62
     7
370
    30
100
AcDbLine
 10
3.2652659743
 20
6.3044449263
 30
0.0
 11
3.2407660307
 21
6.2902996764
 31
0.0
  0
LINE
  5
19E
330
1F
100
AcDbEntity
  8
0
  6
Continuous
 62
     7
370
    30
100
AcDbLine
 10
3.2407660307
 20
6.2902996764
 30
0.0
 11
3.2652659743
 21
6.2761547198
 31
0.0
  0
LINE
  5
19F
330
1F
100
AcDbEntity
  8
0
  6
Continuous
 62
     7
370
    30
100
AcDbLine
 10
3.4062660121
 20
6.2761547198
 30
0.0
 11
3.4307659558
 21
6.2902996764
 31
0.0
  0
LINE
  5
1A0
330
1F
100
AcDbEntity
  8
0
  6
Continuous
 62
     7
370
    30
100
AcDbLine
 10
3.2407660307
 20
6.2347441582
 30
0.0
 11
3.2652659743
 21
6.2205992016
 31
0.0
  0
LINE
  5
1A1
330
1F
100
AcDbEntity
  8
0
  6
Continuous
 62
     7
370
    30
100
AcDbLine
 10
3.4062660121
 20
6.2205992016
 30
0.0
 11
3.4307659558
 21
6.2347441582
 31
0.0
  0
LINE
  5
1A2
330
1F
100
AcDbEntity
  8
0
  6
Continuous
 62
     7
370
    30
100
AcDbLine
 10
3.4307659558
 20
6.2347441582
 30
0.0
 11
3.4062660121
 21
6.2488891148
 31
0.0
  0
LINE
  5
1A3
330
1F
100
AcDbEntity
  8
0
  6
Continuous
 62
     7
370
    30
100
AcDbLine
 10
3.2652659743
 20
6.2488891148
 30
0.0
 11
3.2407660307
 21
6.2347441582
 31
0.0
  0
LINE
  5
1A4
330
1F
100
AcDbEntity
  8
0
  6
Continuous
 62
     7
370
    30
100
AcDbLine
 10
3.2407660307
 20
6.1791886399
 30
0.0
 11
3.2652659743
 21
6.1650436833
 31
0.0
  0
LINE
  5
1A5
330
1F
100
AcDbEntity
  8
0
  6
Continuous
 62
     7
370
    30
100
AcDbLine
 10
3.4062660121
 20
6.1650436833
 30
0.0
 11
3.4307659558
 21
6.1791886399
 31
0.0
  0
LINE
  5
1A6
330
1F
100
AcDbEntity
  8
0
  6
Continuous
 62
     7
370
    30
100
AcDbLine
 10
3.4307659558
 20
6.1791886399
 30
0.0
 11
3.4062660121
 21
6.1933335965
 31
0.0
  0
LINE
  5
1A7
330
1F
100
AcDbEntity
  8
0
  6
Continuous
 62
     7
370
    30
100
AcDbLine
 10
3.2652659743
 20
6.1933335965
 30
0.0
 11
3.2407660307
 21
6.1791886399
 31
0.0
  0
LINE
  5
1A8
330
1F
100
AcDbEntity
  8
0
  6
Continuous
 62
     7
370
    30
100
AcDbLine
 10
3.2407660307
 20
6.1236331217
 30
0.0
 11
3.2652659743
 21
6.1094878718
 31
0.0
  0
LINE
  5
1A9
330
1F
100
AcDbEntity
  8
0
  6
Continuous
 62
     7
370
    30
100
AcDbLine
 10
3.4062660121
 20
6.1094878718
 30
0.0
 11
3.4307659558
 21
6.1236331217
 31
0.0
  0
LINE
  5
1AA
330
1F
100
AcDbEntity
  8
0
  6
Continuous
 62
     7
370
    30
100
AcDbLine
 10
3.4307659558
 20
6.1236331217
 30
0.0
 11
3.4062660121
 21
6.1377780783
 31
0.0
  0
LINE
  5
1AB
330
1F
100
AcDbEntity
  8
0
  6
Continuous
 62
     7
370
    30
100
AcDbLine
 10
3.2652659743
 20
6.1377780783
 30
0.0
 11
3.2407660307
 21
6.1236331217
 31
0.0
  0
LINE
  5
1AC
330
1F
100
AcDbEntity
  8
0
  6
Continuous
 62
     7
370
    30
100
AcDbLine
 10
3.2407660307
 20
6.0680776035
 30
0.0
 11
3.2652659743
 21
6.0539323536
 31
0.0
  0
LINE
  5
1AD
330
1F
100
AcDbEntity
  8
0
  6
Continuous
 62
     7
370
    30
100
AcDbLine
 10
3.4062660121
 20
6.0539323536
 30
0.0
 11
3.4307659558
 21
6.0680776035
 31
0.0
  0
LINE
  5
1AE
330
1F
100
AcDbEntity
  8
0
  6
Continuous
 62
     7
370
    30
100
AcDbLine
 10
3.4307659558
 20
6.0680776035
 30
0.0
 11
3.4062660121
 21
6.0822225601
 31
0.0
  0
LINE
  5
1AF
330
1F
100
AcDbEntity
  8
0
  6
Continuous
 62
     7
370
    30
100
AcDbLine
 10
3.2652659743
 20
6.0822225601
 30
0.0
 11
3.2407660307
 21
6.0680776035
 31
0.0
  0
LINE
  5
1B0
330
1F
100
AcDbEntity
  8
0
  6
Continuous
 62
     7
370
    30
100
AcDbLine
 10
3.2407660307
 20
6.0125220853
 30
0.0
 11
3.2652659743
 21
5.9983768354
 31
0.0
  0
LINE
  5
1B1
330
1F
100
AcDbEntity
  8
0
  6
Continuous
 62
     7
370
    30
100
AcDbLine
 10
3.4062660121
 20
5.9983768354
 30
0.0
 11
3.4307659558
 21
6.0125220853
 31
0.0
  0
LINE
  5
1B2
330
1F
100
AcDbEntity
  8
0
  6
Continuous
 62
     7
370
    30
100
AcDbLine
 10
3.4307659558
 20
6.0125220853
 30
0.0
 11
3.4062660121
 21
6.0266670419
 31
0.0
  0
LINE
  5
1B3
330
1F
100
AcDbEntity
  8
0
  6
Continuous
 62
     7
370
    30
100
AcDbLine
 10
3.2652659743
 20
6.0266670419
 30
0.0
 11
3.2407660307
 21
6.0125220853
 31
0.0
  0
LINE
  5
1B4
330
1F
100
AcDbEntity
  8
0
  6
Continuous
 62
     7
370
    30
100
AcDbLine
 10
3.2407660307
 20
5.9569662737
 30
0.0
 11
3.2652659743
 21
5.9428213171
 31
0.0
  0
LINE
  5
1B5
330
1F
100
AcDbEntity
  8
0
  6
Continuous
 62
     7
370
    30
100
AcDbLine
 10
3.4062660121
 20
5.9428213171
 30
0.0
 11
3.4307659558
 21
5.9569662737
 31
0.0
  0
LINE
  5
1B6
330
1F
100
AcDbEntity
  8
0
  6
Continuous
 62
     7
370
    30
100
AcDbLine
 10
3.4307659558
 20
5.9569662737
 30
0.0
 11
3.4062660121
 21
5.9711115237
 31
0.0
  0
LINE
  5
1B7
330
1F
100
AcDbEntity
  8
0
  6
Continuous
 62
     7
370
    30
100
AcDbLine
 10
3.2652659743
 20
5.9711115237
 30
0.0
 11
3.2407660307
 21
5.9569662737
 31
0.0
  0
LINE
  5
1B8
330
1F
100
AcDbEntity
  8
0
  6
Continuous
 62
     7
370
    30
100
AcDbLine
 10
3.2407660307
 20
5.9014107555
 30
0.0
 11
3.2652659743
 21
5.8872657989
 31
0.0
  0
LINE
  5
1B9
330
1F
100
AcDbEntity
  8
0
  6
Continuous
 62
     7
370
    30
100
AcDbLine
 10
3.4062660121
 20
5.8872657989
 30
0.0
 11
3.4307659558
 21
5.9014107555
 31
0.0
  0
LINE
  5
1BA
330
1F
100
AcDbEntity
  8
0
  6
Continuous
 62
     7
370
    30
100
AcDbLine
 10
3.4307659558
 20
5.9014107555
 30
0.0
 11
3.4062660121
 21
5.9155560054
 31
0.0
  0
LINE
  5
1BB
330
1F
100
AcDbEntity
  8
0
  6
Continuous
 62
     7
370
    30
100
AcDbLine
 10
3.2652659743
 20
5.9155560054
 30
0.0
 11
3.2407660307
 21
5.9014107555
 31
0.0
  0
LINE
  5
1BC
330
1F
100
AcDbEntity
  8
0
  6
Continuous
 62
     7
370
    30
100
AcDbLine
 10
3.4307659558
 20
5.8458552373
 30
0.0
 11
3.4062660121
 21
5.8600004872
 31
0.0
  0
LINE
  5
1BD
330
1F
100
AcDbEntity
  8
0
  6
Continuous
 62
     7
370
    30
100
AcDbLine
 10
3.2652659743
 20
5.8600004872
 30
0.0
 11
3.2407660307
 21
5.8458552373
 31
0.0
  0
LINE
  5
1BE
330
1F
100
AcDbEntity
  8
0
  6
Continuous
 62
     7
370
    30
100
AcDbLine
 10
3.2407660307
 20
5.8458552373
 30
0.0
 11
3.2652659743
 21
5.8317102807
 31
0.0
  0
LINE
  5
1BF
330
1F
100
AcDbEntity
  8
0
  6
Continuous
 62
     7
370
    30
100
AcDbLine
 10
3.4062660121
 20
5.8317102807
 30
0.0
 11
3.4307659558
 21
5.8458552373
 31
0.0
  0
LINE
  5
1C0
330
1F
100
AcDbEntity
  8
0
  6
Continuous
 62
     7
370
    30
100
AcDbLine
 10
3.4307659558
 20
5.7902997191
 30
0.0
 11
3.4062660121
 21
5.8044446757
 31
0.0
  0
LINE
  5
1C1
330
1F
100
AcDbEntity
  8
0
  6
Continuous
 62
     7
370
    30
100
AcDbLine
 10
3.2652659743
 20
5.8044446757
 30
0.0
 11
3.2407660307
 21
5.7902997191
 31
0.0
  0
LINE
  5
1C2
330
1F
100
AcDbEntity
  8
0
  6
Continuous
 62
     7
370
    30
100
AcDbLine
 10
3.4307659558
 20
5.7347442009
 30
0.0
 11
3.4062660121
 21
5.7488891575
 31
0.0
  0
LINE
  5
1C3
330
1F
100
AcDbEntity
  8
0
  6
Continuous
 62
     7
370
    30
100
AcDbLine
 10
3.2652659743
 20
5.7488891575
 30
0.0
 11
3.2407660307
 21
5.7347442009
 31
0.0
  0
LINE
  5
1C4
330
1F
100
AcDbEntity
  8
0
  6
Continuous
 62
     7
370
    30
100
AcDbLine
 10
3.2407660307
 20
5.7902997191
 30
0.0
 11
3.2652659743
 21
5.7761547625
 31
0.0
  0
LINE
  5
1C5
330
1F
100
AcDbEntity
  8
0
  6
Continuous
 62
     7
370
    30
100
AcDbLine
 10
3.4062660121
 20
5.7761547625
 30
0.0
 11
3.4307659558
 21
5.7902997191
 31
0.0
  0
LINE
  5
1C6
330
1F
100
AcDbEntity
  8
0
  6
Continuous
 62
     7
370
    30
100
AcDbLine
 10
3.2407660307
 20
5.7347442009
 30
0.0
 11
3.2652659743
 21
5.7205989509
 31
0.0
  0
LINE
  5
1C7
330
1F
100
AcDbEntity
  8
0
  6
Continuous
 62
     7
370
    30
100
AcDbLine
 10
3.4062660121
 20
5.7205989509
 30
0.0
 11
3.4307659558
 21
5.7347442009
 31
0.0
  0
LINE
  5
1C8
330
1F
100
AcDbEntity
  8
0
  6
Continuous
 62
     7
370
    30
100
AcDbLine
 10
3.4307659558
 20
5.6791886826
 30
0.0
 11
3.4062660121
 21
5.6933336392
 31
0.0
  0
LINE
  5
1C9
330
1F
100
AcDbEntity
  8
0
  6
Continuous
 62
     7
370
    30
100
AcDbLine
 10
3.2652659743
 20
5.6933336392
 30
0.0
 11
3.2407660307
 21
5.6791886826
 31
0.0
  0
LINE
  5
1CA
330
1F
100
AcDbEntity
  8
0
  6
Continuous
 62
     7
370
    30
100
AcDbLine
 10
3.2407660307
 20
5.6791886826
 30
0.0
 11
3.2652659743
 21
5.6650434327
 31
0.0
  0
LINE
  5
1CB
330
1F
100
AcDbEntity
  8
0
  6
Continuous
 62
     7
370
    30
100
AcDbLine
 10
3.4062660121
 20
5.6650434327
 30
0.0
 11
3.4307659558
 21
5.6791886826
 31
0.0
  0
LINE
  5
1CC
330
1F
100
AcDbEntity
  8
0
  6
Continuous
 62
     7
370
    30
100
AcDbLine
 10
3.4307659558
 20
5.6236331644
 30
0.0
 11
3.4062660121
 21
5.637778121
 31
0.0
  0
LINE
  5
1CD
330
1F
100
AcDbEntity
  8
0
  6
Continuous
 62
     7
370
    30
100
AcDbLine
 10
3.2652659743
 20
5.637778121
 30
0.0
 11
3.2407660307
 21
5.6236331644
 31
0.0
  0
LINE
  5
1CE
330
1F
100
AcDbEntity
  8
0
  6
Continuous
 62
     7
370
    30
100
AcDbLine
 10
3.2407660307
 20
5.6236331644
 30
0.0
 11
3.2652659743
 21
5.6094879145
 31
0.0
  0
LINE
  5
1CF
330
1F
100
AcDbEntity
  8
0
  6
Continuous
 62
     7
370
    30
100
AcDbLine
 10
3.4062660121
 20
5.6094879145
 30
0.0
 11
3.4307659558
 21
5.6236331644
 31
0.0
  0
LINE
  5
1D0
330
1F
100
AcDbEntity
  8
0
  6
Continuous
 62
     7
370
    30
100
AcDbLine
 10
3.4307659558
 20
5.5680774995
 30
0.0
 11
3.4062660121
 21
5.5822226028
 31
0.0
  0
LINE
  5
1D1
330
1F
100
AcDbEntity
  8
0
  6
Continuous
 62
     7
370
    30
100
AcDbLine
 10
3.2652659743
 20
5.5822226028
 30
0.0
 11
3.2407660307
 21
5.5680774995
 31
0.0
  0
LINE
  5
1D2
330
1F
100
AcDbEntity
  8
0
  6
Continuous
 62
     7
370
    30
100
AcDbLine
 10
3.2407660307
 20
5.5680774995
 30
0.0
 11
3.2652659743
 21
5.5539323963
 31
0.0
  0
LINE
  5
1D3
330
1F
100
AcDbEntity
  8
0
  6
Continuous
 62
     7
370
    30
100
AcDbLine
 10
3.4062660121
 20
5.5539323963
 30
0.0
 11
3.4307659558
 21
5.5680774995
 31
0.0
  0
LINE
  5
1D4
330
1F
100
AcDbEntity
  8
0
  6
Continuous
 62
     7
370
    30
100
AcDbLine
 10
3.4307659558
 20
5.5125219813
 30
0.0
 11
3.4062660121
 21
5.5266670846
 31
0.0
  0
LINE
  5
1D5
330
1F
100
AcDbEntity
  8
0
  6
Continuous
 62
     7
370
    30
100
AcDbLine
 10
3.2652659743
 20
5.5266670846
 30
0.0
 11
3.2407660307
 21
5.5125219813
 31
0.0
  0
LINE
  5
1D6
330
1F
100
AcDbEntity
  8
0
  6
Continuous
 62
     7
370
    30
100
AcDbLine
 10
3.2407660307
 20
5.5125219813
 30
0.0
 11
3.2652659743
 21
5.4983768781
 31
0.0
  0
LINE
  5
1D7
330
1F
100
AcDbEntity
  8
0
  6
Continuous
 62
     7
370
    30
100
AcDbLine
 10
3.4062660121
 20
5.4983768781
 30
0.0
 11
3.4307659558
 21
5.5125219813
 31
0.0
  0
LINE
  5
1D8
330
1F
100
AcDbEntity
  8
0
  6
Continuous
 62
     7
370
    30
100
AcDbLine
 10
3.4307659558
 20
5.4569664631
 30
0.0
 11
3.4062660121
 21
5.4711114197
 31
0.0
  0
LINE
  5
1D9
330
1F
100
AcDbEntity
  8
0
  6
Continuous
 62
     7
370
    30
100
AcDbLine
 10
3.2652659743
 20
5.4711114197
 30
0.0
 11
3.2407660307
 21
5.4569664631
 31
0.0
  0
LINE
  5
1DA
330
1F
100
AcDbEntity
  8
0
  6
Continuous
 62
     7
370
    30
100
AcDbLine
 10
3.2407660307
 20
5.4569664631
 30
0.0
 11
3.2652659743
 21
5.4428213598
 31
0.0
  0
LINE
  5
1DB
330
1F
100
AcDbEntity
  8
0
  6
Continuous
 62
     7
370
    30
100
AcDbLine
 10
3.4062660121
 20
5.4428213598
 30
0.0
 11
3.4307659558
 21
5.4569664631
 31
0.0
  0
LINE
  5
1DC
330
1F
100
AcDbEntity
  8
0
  6
Continuous
 62
     7
370
    30
100
AcDbLine
 10
3.4307659558
 20
5.4014107982
 30
0.0
 11
3.4062660121
 21
5.4155559015
 31
0.0
  0
LINE
  5
1DD
330
1F
100
AcDbEntity
  8
0
  6
Continuous
 62
     7
370
    30
100
AcDbLine
 10
3.2652659743
 20
5.4155559015
 30
0.0
 11
3.2407660307
 21
5.4014107982
 31
0.0
  0
LINE
  5
1DE
330
1F
100
AcDbEntity
  8
0
  6
Continuous
 62
     7
370
    30
100
AcDbLine
 10
3.2407660307
 20
5.4014107982
 30
0.0
 11
3.2652659743
 21
5.387265695
 31
0.0
  0
LINE
  5
1DF
330
1F
100
AcDbEntity
  8
0
  6
Continuous
 62
     7
370
    30
100
AcDbLine
 10
3.4062660121
 20
5.387265695
 30
0.0
 11
3.4307659558
 21
5.4014107982
 31
0.0
  0
LINE
  5
1E0
330
1F
100
AcDbEntity
  8
0
  6
Continuous
 62
     7
370
    30
100
AcDbLine
 10
3.4307659558
 20
5.34585528
 30
0.0
 11
3.4062660121
 21
5.3600003833
 31
0.0
  0
LINE
  5
1E1
330
1F
100
AcDbEntity
  8
0
  6
Continuous
 62
     7
370
    30
100
AcDbLine
 10
3.2652659743
 20
5.3600003833
 30
0.0
 11
3.2407660307
 21
5.34585528
 31
0.0
  0
LINE
  5
1E2
330
1F
100
AcDbEntity
  8
0
  6
Continuous
 62
     7
370
    30
100
AcDbLine
 10
3.2407660307
 20
5.34585528
 30
0.0
 11
3.2652659743
 21
5.3317101767
 31
0.0
  0
LINE
  5
1E3
330
1F
100
AcDbEntity
  8
0
  6
Continuous
 62
     7
370
    30
100
AcDbLine
 10
3.4062660121
 20
5.3317101767
 30
0.0
 11
3.4307659558
 21
5.34585528
 31
0.0
  0
LINE
  5
1E4
330
1F
100
AcDbEntity
  8
0
  6
Continuous
 62
     7
370
    30
100
AcDbLine
 10
3.2407660307
 20
5.2902997618
 30
0.0
 11
3.2652659743
 21
5.2761546585
 31
0.0
  0
LINE
  5
1E5
330
1F
100
AcDbEntity
  8
0
  6
Continuous
 62
     7
370
    30
100
AcDbLine
 10
3.4062660121
 20
5.2761546585
 30
0.0
 11
3.4307659558
 21
5.2902997618
 31
0.0
  0
LINE
  5
1E6
330
1F
100
AcDbEntity
  8
0
  6
Continuous
 62
     7
370
    30
100
AcDbLine
 10
3.4307659558
 20
5.2902997618
 30
0.0
 11
3.4062660121
 21
5.3044448651
 31
0.0
  0
LINE
  5
1E7
330
1F
100
AcDbEntity
  8
0
  6
Continuous
 62
     7
370
    30
100
AcDbLine
 10
3.2652659743
 20
5.3044448651
 30
0.0
 11
3.2407660307
 21
5.2902997618
 31
0.0
  0
LINE
  5
1E8
330
1F
100
AcDbEntity
  8
0
  6
Continuous
 62
     7
370
    30
100
AcDbLine
 10
3.2407660307
 20
5.2347442436
 30
0.0
 11
3.2652659743
 21
5.2205991403
 31
0.0
  0
LINE
  5
1E9
330
1F
100
AcDbEntity
  8
0
  6
Continuous
 62
     7
370
    30
100
AcDbLine
 10
3.4062660121
 20
5.2205991403
 30
0.0
 11
3.4307659558
 21
5.2347442436
 31
0.0
  0
LINE
  5
1EA
330
1F
100
AcDbEntity
  8
0
  6
Continuous
 62
     7
370
    30
100
AcDbLine
 10
3.4307659558
 20
5.2347442436
 30
0.0
 11
3.4062660121
 21
5.2488892002
 31
0.0
  0
LINE
  5
1EB
330
1F
100
AcDbEntity
  8
0
  6
Continuous
 62
     7
370
    30
100
AcDbLine
 10
3.2652659743
 20
5.2488892002
 30
0.0
 11
3.2407660307
 21
5.2347442436
 31
0.0
  0
LINE
  5
1EC
330
1F
100
AcDbEntity
  8
0
  6
Continuous
 62
     7
370
    30
100
AcDbLine
 10
3.4307659558
 20
5.1791885787
 30
0.0
 11
3.4062660121
 21
5.193333682
 31
0.0
  0
LINE
  5
1ED
330
1F
100
AcDbEntity
  8
0
  6
Continuous
 62
     7
370
    30
100
AcDbLine
 10
3.2652659743
 20
5.193333682
 30
0.0
 11
3.2407660307
 21
5.1791885787
 31
0.0
  0
LINE
  5
1EE
330
1F
100
AcDbEntity
  8
0
  6
Continuous
 62
     7
370
    30
100
AcDbLine
 10
3.2407660307
 20
5.1791885787
 30
0.0
 11
3.2652659743
 21
5.1650434754
 31
0.0
  0
LINE
  5
1EF
330
1F
100
AcDbEntity
  8
0
  6
Continuous
 62
     7
370
    30
100
AcDbLine
 10
3.4062660121
 20
5.1650434754
 30
0.0
 11
3.4307659558
 21
5.1791885787
 31
0.0
  0
LINE
  5
1F0
330
1F
100
AcDbEntity
  8
0
  6
Continuous
 62
     7
370
    30
100
AcDbLine
 10
3.4307659558
 20
5.1236330605
 30
0.0
 11
3.4062660121
 21
5.1377781637
 31
0.0
  0
LINE
  5
1F1
330
1F
100
AcDbEntity
  8
0
  6
Continuous
 62
     7
370
    30
100
AcDbLine
 10
3.2652659743
 20
5.1377781637
 30
0.0
 11
3.2407660307
 21
5.1236330605
 31
0.0
  0
LINE
  5
1F2
330
1F
100
AcDbEntity
  8
0
  6
Continuous
 62
     7
370
    30
100
AcDbLine
 10
3.4307659558
 20
5.0680775423
 30
0.0
 11
3.4062660121
 21
5.0822226455
 31
0.0
  0
LINE
  5
1F3
330
1F
100
AcDbEntity
  8
0
  6
Continuous
 62
     7
370
    30
100
AcDbLine
 10
3.2652659743
 20
5.0822226455
 30
0.0
 11
3.2407660307
 21
5.0680775423
 31
0.0
  0
LINE
  5
1F4
330
1F
100
AcDbEntity
  8
0
  6
Continuous
 62
     7
370
    30
100
AcDbLine
 10
3.2407660307
 20
5.1236330605
 30
0.0
 11
3.2652659743
 21
5.1094879572
 31
0.0
  0
LINE
  5
1F5
330
1F
100
AcDbEntity
  8
0
  6
Continuous
 62
     7
370
    30
100
AcDbLine
 10
3.4062660121
 20
5.1094879572
 30
0.0
 11
3.4307659558
 21
5.1236330605
 31
0.0
  0
LINE
  5
1F6
330
1F
100
AcDbEntity
  8
0
  6
Continuous
 62
     7
370
    30
100
AcDbLine
 10
3.2407660307
 20
5.0680775423
 30
0.0
 11
3.2652659743
 21
5.053932439
 31
0.0
  0
LINE
  5
1F7
330
1F
100
AcDbEntity
  8
0
  6
Continuous
 62
     7
370
    30
100
AcDbLine
 10
3.4062660121
 20
5.053932439
 30
0.0
 11
3.4307659558
 21
5.0680775423
 31
0.0
  0
LINE
  5
1F8
330
1F
100
AcDbEntity
  8
0
  6
Continuous
 62
     7
370
    30
100
AcDbLine
 10
3.4178717581
 20
5.0199664447
 30
0.0
 11
3.4062660121
 21
5.0266669806
 31
0.0
  0
LINE
  5
1F9
330
1F
100
AcDbEntity
  8
0
  6
Continuous
 62
     7
370
    30
100
AcDbLine
 10
3.2652659743
 20
5.0266669806
 30
0.0
 11
3.2536600817
 21
5.0199664447
 31
0.0
  0
LINE
  5
1FA
330
1F
100
AcDbEntity
  8
0
  6
Continuous
 62
     7
370
    30
100
AcDbLine
 10
3.4062660121
 20
7.2867643785
 30
0.0
 11
3.3357659199
 21
7.4569664389
 31
0.0
  0
LINE
  5
1FB
330
1F
100
AcDbEntity
  8
0
  6
Continuous
 62
     7
370
    30
100
AcDbLine
 10
3.3357659199
 20
7.4569664389
 30
0.0
 11
3.2652659743
 21
7.2867643785
 31
0.0
  0
LINE
  5
1FC
330
1F
100
AcDbEntity
  8
0
  6
Continuous
 62
     7
370
    30
100
AcDbLine
 10
3.4062660121
 20
7.253879745
 30
0.0
 11
3.4062660121
 21
7.2867643785
 31
0.0
  0
LINE
  5
1FD
330
1F
100
AcDbEntity
  8
0
  6
Continuous
 62
     7
370
    30
100
AcDbLine
 10
3.2652659743
 20
7.2867643785
 30
0.0
 11
3.2652659743
 21
7.253879745
 31
0.0
  0
LINE
  5
1FE
330
1F
100
AcDbEntity
  8
0
  6
Continuous
 62
     7
370
    30
100
AcDbLine
 10
3.4062660121
 20
7.1377782862
 30
0.0
 11
3.4062660121
 21
7.1650435979
 31
0.0
  0
LINE
  5
1FF
330
1F
100
AcDbEntity
  8
0
  6
Continuous
 62
     7
370
    30
100
AcDbLine
 10
3.2652659743
 20
7.1650435979
 30
0.0
 11
3.2652659743
 21
7.1377782862
 31
0.0
  0
LINE
  5
200
330
1F
100
AcDbEntity
  8
0
  6
Continuous
 62
     7
370
    30
100
AcDbLine
 10
3.4062660121
 20
7.0822224747
 30
0.0
 11
3.4062660121
 21
7.1094880797
 31
0.0
  0
LINE
  5
201
330
1F
100
AcDbEntity
  8
0
  6
Continuous
 62
     7
370
    30
100
AcDbLine
 10
3.2652659743
 20
7.1094880797
 30
0.0
 11
3.2652659743
 21
7.0822224747
 31
0.0
  0
LINE
  5
202
330
1F
100
AcDbEntity
  8
0
  6
Continuous
 62
     7
370
    30
100
AcDbLine
 10
3.4062660121
 20
7.0266669565
 30
0.0
 11
3.4062660121
 21
7.0539325615
 31
0.0
  0
LINE
  5
203
330
1F
100
AcDbEntity
  8
0
  6
Continuous
 62
     7
370
    30
100
AcDbLine
 10
3.2652659743
 20
7.0539325615
 30
0.0
 11
3.2652659743
 21
7.0266669565
 31
0.0
  0
LINE
  5
204
330
1F
100
AcDbEntity
  8
0
  6
Continuous
 62
     7
370
    30
100
AcDbLine
 10
3.4062660121
 20
6.9711114382
 30
0.0
 11
3.4062660121
 21
6.9983767499
 31
0.0
  0
LINE
  5
205
330
1F
100
AcDbEntity
  8
0
  6
Continuous
 62
     7
370
    30
100
AcDbLine
 10
3.2652659743
 20
6.9983767499
 30
0.0
 11
3.2652659743
 21
6.9711114382
 31
0.0
  0
LINE
  5
206
330
1F
100
AcDbEntity
  8
0
  6
Continuous
 62
     7
370
    30
100
AcDbLine
 10
3.4062660121
 20
6.91555592
 30
0.0
 11
3.4062660121
 21
6.9428212317
 31
0.0
  0
LINE
  5
207
330
1F
100
AcDbEntity
  8
0
  6
Continuous
 62
     7
370
    30
100
AcDbLine
 10
3.2652659743
 20
6.9428212317
 30
0.0
 11
3.2652659743
 21
6.91555592
 31
0.0
  0
LINE
  5
208
330
1F
100
AcDbEntity
  8
0
  6
Continuous
 62
     7
370
    30
100
AcDbLine
 10
3.4062660121
 20
6.8600004018
 30
0.0
 11
3.4062660121
 21
6.8872657135
 31
0.0
  0
LINE
  5
209
330
1F
100
AcDbEntity
  8
0
  6
Continuous
 62
     7
370
    30
100
AcDbLine
 10
3.2652659743
 20
6.8872657135
 30
0.0
 11
3.2652659743
 21
6.8600004018
 31
0.0
  0
LINE
  5
20A
330
1F
100
AcDbEntity
  8
0
  6
Continuous
 62
     7
370
    30
100
AcDbLine
 10
3.4062660121
 20
6.8044448836
 30
0.0
 11
3.4062660121
 21
6.8317101953
 31
0.0
  0
LINE
  5
20B
330
1F
100
AcDbEntity
  8
0
  6
Continuous
 62
     7
370
    30
100
AcDbLine
 10
3.2652659743
 20
6.8317101953
 30
0.0
 11
3.2652659743
 21
6.8044448836
 31
0.0
  0
LINE
  5
20C
330
1F
100
AcDbEntity
  8
0
  6
Continuous
 62
     7
370
    30
100
AcDbLine
 10
3.4062660121
 20
6.7488893654
 30
0.0
 11
3.4062660121
 21
6.7761546771
 31
0.0
  0
LINE
  5
20D
330
1F
100
AcDbEntity
  8
0
  6
Continuous
 62
     7
370
    30
100
AcDbLine
 10
3.2652659743
 20
6.7761546771
 30
0.0
 11
3.2652659743
 21
6.7488893654
 31
0.0
  0
LINE
  5
20E
330
1F
100
AcDbEntity
  8
0
  6
Continuous
 62
     7
370
    30
100
AcDbLine
 10
3.4062660121
 20
6.6933335538
 30
0.0
 11
3.4062660121
 21
6.7205991589
 31
0.0
  0
LINE
  5
20F
330
1F
100
AcDbEntity
  8
0
  6
Continuous
 62
     7
370
    30
100
AcDbLine
 10
3.2652659743
 20
6.7205991589
 30
0.0
 11
3.2652659743
 21
6.6933335538
 31
0.0
  0
LINE
  5
210
330
1F
100
AcDbEntity
  8
0
  6
Continuous
 62
     7
370
    30
100
AcDbLine
 10
3.4062660121
 20
6.6377780356
 30
0.0
 11
3.4062660121
 21
6.6650436406
 31
0.0
  0
LINE
  5
211
330
1F
100
AcDbEntity
  8
0
  6
Continuous
 62
     7
370
    30
100
AcDbLine
 10
3.2652659743
 20
6.6650436406
 30
0.0
 11
3.2652659743
 21
6.6377780356
 31
0.0
  0
LINE
  5
212
330
1F
100
AcDbEntity
  8
0
  6
Continuous
 62
     7
370
    30
100
AcDbLine
 10
3.4062660121
 20
6.5822225174
 30
0.0
 11
3.4062660121
 21
6.6094881224
 31
0.0
  0
LINE
  5
213
330
1F
100
AcDbEntity
  8
0
  6
Continuous
 62
     7
370
    30
100
AcDbLine
 10
3.2652659743
 20
6.6094881224
 30
0.0
 11
3.2652659743
 21
6.5822225174
 31
0.0
  0
LINE
  5
214
330
1F
100
AcDbEntity
  8
0
  6
Continuous
 62
     7
370
    30
100
AcDbLine
 10
3.4062660121
 20
6.5266669992
 30
0.0
 11
3.4062660121
 21
6.5539323109
 31
0.0
  0
LINE
  5
215
330
1F
100
AcDbEntity
  8
0
  6
Continuous
 62
     7
370
    30
100
AcDbLine
 10
3.2652659743
 20
6.5539323109
 30
0.0
 11
3.2652659743
 21
6.5266669992
 31
0.0
  0
LINE
  5
216
330
1F
100
AcDbEntity
  8
0
  6
Continuous
 62
     7
370
    30
100
AcDbLine
 10
3.4062660121
 20
6.471111481
 30
0.0
 11
3.4062660121
 21
6.4983767926
 31
0.0
  0
LINE
  5
217
330
1F
100
AcDbEntity
  8
0
  6
Continuous
 62
     7
370
    30
100
AcDbLine
 10
3.2652659743
 20
6.4983767926
 30
0.0
 11
3.2652659743
 21
6.471111481
 31
0.0
  0
LINE
  5
218
330
1F
100
AcDbEntity
  8
0
  6
Continuous
 62
     7
370
    30
100
AcDbLine
 10
3.4062660121
 20
6.4155559627
 30
0.0
 11
3.4062660121
 21
6.4428212744
 31
0.0
  0
LINE
  5
219
330
1F
100
AcDbEntity
  8
0
  6
Continuous
 62
     7
370
    30
100
AcDbLine
 10
3.2652659743
 20
6.4428212744
 30
0.0
 11
3.2652659743
 21
6.4155559627
 31
0.0
  0
LINE
  5
21A
330
1F
100
AcDbEntity
  8
0
  6
Continuous
 62
     7
370
    30
100
AcDbLine
 10
3.4062660121
 20
6.3600004445
 30
0.0
 11
3.4062660121
 21
6.3872657562
 31
0.0
  0
LINE
  5
21B
330
1F
100
AcDbEntity
  8
0
  6
Continuous
 62
     7
370
    30
100
AcDbLine
 10
3.2652659743
 20
6.3872657562
 30
0.0
 11
3.2652659743
 21
6.3600004445
 31
0.0
  0
LINE
  5
21C
330
1F
100
AcDbEntity
  8
0
  6
Continuous
 62
     7
370
    30
100
AcDbLine
 10
3.4062660121
 20
6.3044449263
 30
0.0
 11
3.4062660121
 21
6.331710238
 31
0.0
  0
LINE
  5
21D
330
1F
100
AcDbEntity
  8
0
  6
Continuous
 62
     7
370
    30
100
AcDbLine
 10
3.2652659743
 20
6.331710238
 30
0.0
 11
3.2652659743
 21
6.3044449263
 31
0.0
  0
LINE
  5
21E
330
1F
100
AcDbEntity
  8
0
  6
Continuous
 62
     7
370
    30
100
AcDbLine
 10
3.4062660121
 20
6.2488891148
 30
0.0
 11
3.4062660121
 21
6.2761547198
 31
0.0
  0
LINE
  5
21F
330
1F
100
AcDbEntity
  8
0
  6
Continuous
 62
     7
370
    30
100
AcDbLine
 10
3.2652659743
 20
6.2761547198
 30
0.0
 11
3.2652659743
 21
6.2488891148
 31
0.0
  0
LINE
  5
220
330
1F
100
AcDbEntity
  8
0
  6
Continuous
 62
     7
370
    30
100
AcDbLine
 10
3.4062660121
 20
6.1933335965
 30
0.0
 11
3.4062660121
 21
6.2205992016
 31
0.0
  0
LINE
  5
221
330
1F
100
AcDbEntity
  8
0
  6
Continuous
 62
     7
370
    30
100
AcDbLine
 10
3.2652659743
 20
6.2205992016
 30
0.0
 11
3.2652659743
 21
6.1933335965
 31
0.0
  0
LINE
  5
222
330
1F
100
AcDbEntity
  8
0
  6
Continuous
 62
     7
370
    30
100
AcDbLine
 10
3.4062660121
 20
6.1377780783
 30
0.0
 11
3.4062660121
 21
6.1650436833
 31
0.0
  0
LINE
  5
223
330
1F
100
AcDbEntity
  8
0
  6
Continuous
 62
     7
370
    30
100
AcDbLine
 10
3.2652659743
 20
6.1650436833
 30
0.0
 11
3.2652659743
 21
6.1377780783
 31
0.0
  0
LINE
  5
224
330
1F
100
AcDbEntity
  8
0
  6
Continuous
 62
     7
370
    30
100
AcDbLine
 10
3.4062660121
 20
6.0822225601
 30
0.0
 11
3.4062660121
 21
6.1094878718
 31
0.0
  0
LINE
  5
225
330
1F
100
AcDbEntity
  8
0
  6
Continuous
 62
     7
370
    30
100
AcDbLine
 10
3.2652659743
 20
6.1094878718
 30
0.0
 11
3.2652659743
 21
6.0822225601
 31
0.0
  0
LINE
  5
226
330
1F
100
AcDbEntity
  8
0
  6
Continuous
 62
     7
370
    30
100
AcDbLine
 10
3.4062660121
 20
6.0266670419
 30
0.0
 11
3.4062660121
 21
6.0539323536
 31
0.0
  0
LINE
  5
227
330
1F
100
AcDbEntity
  8
0
  6
Continuous
 62
     7
370
    30
100
AcDbLine
 10
3.2652659743
 20
6.0539323536
 30
0.0
 11
3.2652659743
 21
6.0266670419
 31
0.0
  0
LINE
  5
228
330
1F
100
AcDbEntity
  8
0
  6
Continuous
 62
     7
370
    30
100
AcDbLine
 10
3.4062660121
 20
5.9711115237
 30
0.0
 11
3.4062660121
 21
5.9983768354
 31
0.0
  0
LINE
  5
229
330
1F
100
AcDbEntity
  8
0
  6
Continuous
 62
     7
370
    30
100
AcDbLine
 10
3.2652659743
 20
5.9983768354
 30
0.0
 11
3.2652659743
 21
5.9711115237
 31
0.0
  0
LINE
  5
22A
330
1F
100
AcDbEntity
  8
0
  6
Continuous
 62
     7
370
    30
100
AcDbLine
 10
3.4062660121
 20
5.9155560054
 30
0.0
 11
3.4062660121
 21
5.9428213171
 31
0.0
  0
LINE
  5
22B
330
1F
100
AcDbEntity
  8
0
  6
Continuous
 62
     7
370
    30
100
AcDbLine
 10
3.2652659743
 20
5.9428213171
 30
0.0
 11
3.2652659743
 21
5.9155560054
 31
0.0
  0
LINE
  5
22C
330
1F
100
AcDbEntity
  8
0
  6
Continuous
 62
     7
370
    30
100
AcDbLine
 10
3.4062660121
 20
5.8600004872
 30
0.0
 11
3.4062660121
 21
5.8872657989
 31
0.0
  0
LINE
  5
22D
330
1F
100
AcDbEntity
  8
0
  6
Continuous
 62
     7
370
    30
100
AcDbLine
 10
3.2652659743
 20
5.8872657989
 30
0.0
 11
3.2652659743
 21
5.8600004872
 31
0.0
  0
LINE
  5
22E
330
1F
100
AcDbEntity
  8
0
  6
Continuous
 62
     7
370
    30
100
AcDbLine
 10
3.4062660121
 20
5.8044446757
 30
0.0
 11
3.4062660121
 21
5.8317102807
 31
0.0
  0
LINE
  5
22F
330
1F
100
AcDbEntity
  8
0
  6
Continuous
 62
     7
370
    30
100
AcDbLine
 10
3.2652659743
 20
5.8317102807
 30
0.0
 11
3.2652659743
 21
5.8044446757
 31
0.0
  0
LINE
  5
230
330
1F
100
AcDbEntity
  8
0
  6
Continuous
 62
     7
370
    30
100
AcDbLine
 10
3.4062660121
 20
5.7488891575
 30
0.0
 11
3.4062660121
 21
5.7761547625
 31
0.0
  0
LINE
  5
231
330
1F
100
AcDbEntity
  8
0
  6
Continuous
 62
     7
370
    30
100
AcDbLine
 10
3.2652659743
 20
5.7761547625
 30
0.0
 11
3.2652659743
 21
5.7488891575
 31
0.0
  0
LINE
  5
232
330
1F
100
AcDbEntity
  8
0
  6
Continuous
 62
     7
370
    30
100
AcDbLine
 10
3.4062660121
 20
5.6933336392
 30
0.0
 11
3.4062660121
 21
5.7205989509
 31
0.0
  0
LINE
  5
233
330
1F
100
AcDbEntity
  8
0
  6
Continuous
 62
     7
370
    30
100
AcDbLine
 10
3.2652659743
 20
5.7205989509
 30
0.0
 11
3.2652659743
 21
5.6933336392
 31
0.0
  0
LINE
  5
234
330
1F
100
AcDbEntity
  8
0
  6
Continuous
 62
     7
370
    30
100
AcDbLine
 10
3.4062660121
 20
5.637778121
 30
0.0
 11
3.4062660121
 21
5.6650434327
 31
0.0
  0
LINE
  5
235
330
1F
100
AcDbEntity
  8
0
  6
Continuous
 62
     7
370
    30
100
AcDbLine
 10
3.2652659743
 20
5.6650434327
 30
0.0
 11
3.2652659743
 21
5.637778121
 31
0.0
  0
LINE
  5
236
330
1F
100
AcDbEntity
  8
0
  6
Continuous
 62
     7
370
    30
100
AcDbLine
 10
3.4062660121
 20
5.5822226028
 30
0.0
 11
3.4062660121
 21
5.6094879145
 31
0.0
  0
LINE
  5
237
330
1F
100
AcDbEntity
  8
0
  6
Continuous
 62
     7
370
    30
100
AcDbLine
 10
3.2652659743
 20
5.6094879145
 30
0.0
 11
3.2652659743
 21
5.5822226028
 31
0.0
  0
LINE
  5
238
330
1F
100
AcDbEntity
  8
0
  6
Continuous
 62
     7
370
    30
100
AcDbLine
 10
3.4062660121
 20
5.5266670846
 30
0.0
 11
3.4062660121
 21
5.5539323963
 31
0.0
  0
LINE
  5
239
330
1F
100
AcDbEntity
  8
0
  6
Continuous
 62
     7
370
    30
100
AcDbLine
 10
3.2652659743
 20
5.5539323963
 30
0.0
 11
3.2652659743
 21
5.5266670846
 31
0.0
  0
LINE
  5
23A
330
1F
100
AcDbEntity
  8
0
  6
Continuous
 62
     7
370
    30
100
AcDbLine
 10
3.4062660121
 20
5.4711114197
 30
0.0
 11
3.4062660121
 21
5.4983768781
 31
0.0
  0
LINE
  5
23B
330
1F
100
AcDbEntity
  8
0
  6
Continuous
 62
     7
370
    30
100
AcDbLine
 10
3.2652659743
 20
5.4983768781
 30
0.0
 11
3.2652659743
 21
5.4711114197
 31
0.0
  0
LINE
  5
23C
330
1F
100
AcDbEntity
  8
0
  6
Continuous
 62
     7
370
    30
100
AcDbLine
 10
3.4062660121
 20
5.4155559015
 30
0.0
 11
3.4062660121
 21
5.4428213598
 31
0.0
  0
LINE
  5
23D
330
1F
100
AcDbEntity
  8
0
  6
Continuous
 62
     7
370
    30
100
AcDbLine
 10
3.2652659743
 20
5.4428213598
 30
0.0
 11
3.2652659743
 21
5.4155559015
 31
0.0
  0
LINE
  5
23E
330
1F
100
AcDbEntity
  8
0
  6
Continuous
 62
     7
370
    30
100
AcDbLine
 10
3.4062660121
 20
5.3600003833
 30
0.0
 11
3.4062660121
 21
5.387265695
 31
0.0
  0
LINE
  5
23F
330
1F
100
AcDbEntity
  8
0
  6
Continuous
 62
     7
370
    30
100
AcDbLine
 10
3.2652659743
 20
5.387265695
 30
0.0
 11
3.2652659743
 21
5.3600003833
 31
0.0
  0
LINE
  5
240
330
1F
100
AcDbEntity
  8
0
  6
Continuous
 62
     7
370
    30
100
AcDbLine
 10
3.4062660121
 20
5.3044448651
 30
0.0
 11
3.4062660121
 21
5.3317101767
 31
0.0
  0
LINE
  5
241
330
1F
100
AcDbEntity
  8
0
  6
Continuous
 62
     7
370
    30
100
AcDbLine
 10
3.2652659743
 20
5.3317101767
 30
0.0
 11
3.2652659743
 21
5.3044448651
 31
0.0
  0
LINE
  5
242
330
1F
100
AcDbEntity
  8
0
  6
Continuous
 62
     7
370
    30
100
AcDbLine
 10
3.4062660121
 20
5.2488892002
 30
0.0
 11
3.4062660121
 21
5.2761546585
 31
0.0
  0
LINE
  5
243
330
1F
100
AcDbEntity
  8
0
  6
Continuous
 62
     7
370
    30
100
AcDbLine
 10
3.2652659743
 20
5.2761546585
 30
0.0
 11
3.2652659743
 21
5.2488892002
 31
0.0
  0
LINE
  5
244
330
1F
100
AcDbEntity
  8
0
  6
Continuous
 62
     7
370
    30
100
AcDbLine
 10
3.4062660121
 20
5.193333682
 30
0.0
 11
3.4062660121
 21
5.2205991403
 31
0.0
  0
LINE
  5
245
330
1F
100
AcDbEntity
  8
0
  6
Continuous
 62
     7
370
    30
100
AcDbLine
 10
3.2652659743
 20
5.2205991403
 30
0.0
 11
3.2652659743
 21
5.193333682
 31
0.0
  0
LINE
  5
246
330
1F
100
AcDbEntity
  8
0
  6
Continuous
 62
     7
370
    30
100
AcDbLine
 10
3.4062660121
 20
5.1377781637
 30
0.0
 11
3.4062660121
 21
5.1650434754
 31
0.0
  0
LINE
  5
247
330
1F
100
AcDbEntity
  8
0
  6
Continuous
 62
     7
370
    30
100
AcDbLine
 10
3.2652659743
 20
5.1650434754
 30
0.0
 11
3.2652659743
 21
5.1377781637
 31
0.0
  0
LINE
  5
248
330
1F
100
AcDbEntity
  8
0
  6
Continuous
 62
     7
370
    30
100
AcDbLine
 10
3.4062660121
 20
5.0822226455
 30
0.0
 11
3.4062660121
 21
5.1094879572
 31
0.0
  0
LINE
  5
249
330
1F
100
AcDbEntity
  8
0
  6
Continuous
 62
     7
370
    30
100
AcDbLine
 10
3.2652659743
 20
5.1094879572
 30
0.0
 11
3.2652659743
 21
5.0822226455
 31
0.0
  0
LINE
  5
24A
330
1F
100
AcDbEntity
  8
0
  6
Continuous
 62
     7
370
    30
100
AcDbLine
 10
3.4062660121
 20
5.0266669806
 30
0.0
 11
3.4062660121
 21
5.053932439
 31
0.0
  0
LINE
  5
24B
330
1F
100
AcDbEntity
  8
0
  6
Continuous
 62
     7
370
    30
100
AcDbLine
 10
3.2652659743
 20
5.053932439
 30
0.0
 11
3.2652659743
 21
5.0266669806
 31
0.0
  0
ARC
  5
24C
330
1F
100
AcDbEntity
  8
0
  6
Continuous
 62
     7
370
    30
100
AcDbCircle
 10
7.2732659797
 20
7.22687973
 30
0.0
 40
0.0150000000000006
100
AcDbArc
 50
229.8738546678
 51
270.0
  0
ARC
  5
24D
330
1F
100
AcDbEntity
  8
0
  6
Continuous
 62
     7
370
    30
100
AcDbCircle
 10
6.8982659797
 20
7.22687973
 30
0.0
 40
0.0150000000000006
100
AcDbArc
 50
270.0
 51
310.1261453322
  0
ARC
  5
24E
330
1F
100
AcDbEntity
  8
0
  6
Continuous
 62
     7
370
    30
100
AcDbCircle
 10
7.1582659797
 20
7.0904392538
 30
0.0
 40
0.1634404761904769
100
AcDbArc
 50
49.8738546678
 51
90.0
  0
ARC
  5
24F
330
1F
100
AcDbEntity
  8
0
  6
Continuous
 62
     7
370
    30
100
AcDbCircle
 10
7.0132659797
 20
7.0904392538
 30
0.0
 40
0.1634404761904769
100
AcDbArc
 50
90.0
 51
130.1261453322
  0
ARC
  5
250
330
1F
100
AcDbEntity
  8
0
  6
Continuous
 62
     7
370
    30
100
AcDbCircle
 10
3.5232659797
 20
7.22687973
 30
0.0
 40
0.0150000000000006
100
AcDbArc
 50
229.8738546678
 51
270.0
  0
ARC
  5
251
330
1F
100
AcDbEntity
  8
0
  6
Continuous
 62
     7
370
    30
100
AcDbCircle
 10
3.1482659797
 20
7.22687973
 30
0.0
 40
0.0150000000000006
100
AcDbArc
 50
270.0
 51
310.1261453322
  0
ARC
  5
252
330
1F
100
AcDbEntity
  8
0
  6
Continuous
 62
     7
370
    30
100
AcDbCircle
 10
3.4082659797
 20
7.0904392538
 30
0.0
 40
0.1634404761904769
100
AcDbArc
 50
49.8738546678
 51
90.0
  0
ARC
  5
253
330
1F
100
AcDbEntity
  8
0
  6
Continuous
 62
     7
370
    30
100
AcDbCircle
 10
3.2632659797
 20
7.0904392538
 30
0.0
 40
0.1634404761904769
100
AcDbArc
 50
90.0
 51
130.1261453322
  0
LINE
  5
254
330
1F
100
AcDbEntity
  8
0
  6
Continuous
 62
     7
370
    30
100
AcDbLine
 10
8.0857661008
 20
4.9889664562
 30
0.0
 11
8.0857661008
 21
3.1139663963
 31
0.0
  0
LINE
  5
255
330
1F
100
AcDbEntity
  8
0
  6
Continuous
 62
     7
370
    30
100
AcDbLine
 10
8.0237661237
 20
3.1139663963
 30
0.0
 11
8.0857661008
 21
3.1139663963
 31
0.0
  0
LINE
  5
256
330
1F
100
AcDbEntity
  8
0
  6
Continuous
 62
     7
370
    30
100
AcDbLine
 10
8.0237661237
 20
3.1139663963
 30
0.0
 11
8.0237661237
 21
3.1759663963
 31
0.0
  0
LINE
  5
257
330
1F
100
AcDbEntity
  8
0
  6
Continuous
 62
     7
370
    30
100
AcDbLine
 10
8.0237661237
 20
3.1759663963
 30
0.0
 11
7.9537658657
 21
3.1759663963
 31
0.0
  0
LINE
  5
258
330
1F
100
AcDbEntity
  8
0
  6
Continuous
 62
     7
370
    30
100
AcDbLine
 10
7.9537658657
 20
3.1759663963
 30
0.0
 11
7.9537658657
 21
3.2379663964
 31
0.0
  0
LINE
  5
259
330
1F
100
AcDbEntity
  8
0
  6
Continuous
 62
     7
370
    30
100
AcDbLine
 10
7.9537658657
 20
3.2379663964
 30
0.0
 11
8.0237661237
 21
3.2379663964
 31
0.0
  0
LINE
  5
25A
330
1F
100
AcDbEntity
  8
0
  6
Continuous
 62
     7
370
    30
100
AcDbLine
 10
8.0237661237
 20
3.2379663964
 30
0.0
 11
8.0237661237
 21
3.6299664021
 31
0.0
  0
LINE
  5
25B
330
1F
100
AcDbEntity
  8
0
  6
Continuous
 62
     7
370
    30
100
AcDbLine
 10
8.0237661237
 20
3.6299664021
 30
0.0
 11
7.9297659029
 21
3.6299664021
 31
0.0
  0
ARC
  5
25C
330
1F
100
AcDbEntity
  8
0
  6
Continuous
 62
     7
370
    30
100
AcDbCircle
 10
7.9297659797
 20
3.6609663963
 30
0.0
 40
0.0309999999999997
100
AcDbArc
 50
180.0
 51
270.0
  0
LINE
  5
25D
330
1F
100
AcDbEntity
  8
0
  6
Continuous
 62
     7
370
    30
100
AcDbLine
 10
7.8987659144
 20
3.6609663907
 30
0.0
 11
7.8987659144
 21
3.7549663914
 31
0.0
  0
LINE
  5
25E
330
1F
100
AcDbEntity
  8
0
  6
Continuous
 62
     7
370
    30
100
AcDbLine
 10
7.8987659144
 20
3.7549663914
 30
0.0
 11
7.9557660826
 21
3.7549663914
 31
0.0
  0
LINE
  5
25F
330
1F
100
AcDbEntity
  8
0
  6
Continuous
 62
     7
370
    30
100
AcDbLine
 10
7.9557660826
 20
3.7549663914
 30
0.0
 11
7.9557660826
 21
3.6919663792
 31
0.0
  0
LINE
  5
260
330
1F
100
AcDbEntity
  8
0
  6
Continuous
 62
     7
370
    30
100
AcDbLine
 10
7.9557660826
 20
3.6919663792
 30
0.0
 11
8.0237661237
 21
3.6919663792
 31
0.0
  0
LINE
  5
261
330
1F
100
AcDbEntity
  8
0
  6
Continuous
 62
     7
370
    30
100
AcDbLine
 10
8.0237661237
 20
3.6919663792
 30
0.0
 11
8.0237661237
 21
4.4569664019
 31
0.0
  0
LINE
  5
262
330
1F
100
AcDbEntity
  8
0
  6
Continuous
 62
     7
370
    30
100
AcDbLine
 10
8.0237661237
 20
4.4569664019
 30
0.0
 11
7.9557660826
 21
4.4569664019
 31
0.0
  0
LINE
  5
263
330
1F
100
AcDbEntity
  8
0
  6
Continuous
 62
     7
370
    30
100
AcDbLine
 10
7.9557660826
 20
4.4569664019
 30
0.0
 11
7.9557660826
 21
4.3949664248
 31
0.0
  0
LINE
  5
264
330
1F
100
AcDbEntity
  8
0
  6
Continuous
 62
     7
370
    30
100
AcDbLine
 10
7.9557660826
 20
4.3949664248
 30
0.0
 11
7.8987659144
 21
4.3949664248
 31
0.0
  0
LINE
  5
265
330
1F
100
AcDbEntity
  8
0
  6
Continuous
 62
     7
370
    30
100
AcDbLine
 10
7.8987659144
 20
4.3949664248
 30
0.0
 11
7.8987659144
 21
4.4569664019
 31
0.0
  0
ARC
  5
266
330
1F
100
AcDbEntity
  8
0
  6
Continuous
 62
     7
370
    30
100
AcDbCircle
 10
7.8987659797
 20
4.4879663963
 30
0.0
 40
0.0309999999999997
100
AcDbArc
 50
180.0
 51
270.0
  0
LINE
  5
267
330
1F
100
AcDbEntity
  8
0
  6
Continuous
 62
     7
370
    30
100
AcDbLine
 10
7.8677659258
 20
4.4879663904
 30
0.0
 11
7.8677659258
 21
4.6129664531
 31
0.0
  0
LINE
  5
268
330
1F
100
AcDbEntity
  8
0
  6
Continuous
 62
     7
370
    30
100
AcDbLine
 10
7.8677659258
 20
4.6129664531
 30
0.0
 11
7.9297659029
 21
4.6129664531
 31
0.0
  0
LINE
  5
269
330
1F
100
AcDbEntity
  8
0
  6
Continuous
 62
     7
370
    30
100
AcDbLine
 10
7.9297659029
 20
4.6129664531
 30
0.0
 11
7.9297659029
 21
4.518966379
 31
0.0
  0
LINE
  5
26A
330
1F
100
AcDbEntity
  8
0
  6
Continuous
 62
     7
370
    30
100
AcDbLine
 10
7.9297659029
 20
4.518966379
 30
0.0
 11
8.0237661237
 21
4.518966379
 31
0.0
  0
LINE
  5
26B
330
1F
100
AcDbEntity
  8
0
  6
Continuous
 62
     7
370
    30
100
AcDbLine
 10
8.0237661237
 20
4.518966379
 30
0.0
 11
8.0237661237
 21
4.9889664562
 31
0.0
  0
LINE
  5
26C
330
1F
100
AcDbEntity
  8
0
  6
Continuous
 62
     7
370
    30
100
AcDbLine
 10
8.0237661237
 20
4.9889664562
 30
0.0
 11
8.0857661008
 21
4.9889664562
 31
0.0
  0
LINE
  5
26D
330
1F
100
AcDbEntity
  8
0
  6
Continuous
 62
     7
370
    30
100
AcDbLine
 10
2.3357658586
 20
3.1139663963
 30
0.0
 11
2.3357658586
 21
4.9889664562
 31
0.0
  0
LINE
  5
26E
330
1F
100
AcDbEntity
  8
0
  6
Continuous
 62
     7
370
    30
100
AcDbLine
 10
2.3357658586
 20
4.9889664562
 30
0.0
 11
2.3977658357
 21
4.9889664562
 31
0.0
  0
LINE
  5
26F
330
1F
100
AcDbEntity
  8
0
  6
Continuous
 62
     7
370
    30
100
AcDbLine
 10
2.3977658357
 20
4.9889664562
 30
0.0
 11
2.3977658357
 21
4.518966379
 31
0.0
  0
LINE
  5
270
330
1F
100
AcDbEntity
  8
0
  6
Continuous
 62
     7
370
    30
100
AcDbLine
 10
2.3977658357
 20
4.518966379
 30
0.0
 11
2.4917660565
 21
4.518966379
 31
0.0
  0
LINE
  5
271
330
1F
100
AcDbEntity
  8
0
  6
Continuous
 62
     7
370
    30
100
AcDbLine
 10
2.4917660565
 20
4.518966379
 30
0.0
 11
2.4917660565
 21
4.6129664531
 31
0.0
  0
LINE
  5
272
330
1F
100
AcDbEntity
  8
0
  6
Continuous
 62
     7
370
    30
100
AcDbLine
 10
2.4917660565
 20
4.6129664531
 30
0.0
 11
2.5537660336
 21
4.6129664531
 31
0.0
  0
LINE
  5
273
330
1F
100
AcDbEntity
  8
0
  6
Continuous
 62
     7
370
    30
100
AcDbLine
 10
2.5537660336
 20
4.6129664531
 30
0.0
 11
2.5537660336
 21
4.4879663904
 31
0.0
  0
ARC
  5
274
330
1F
100
AcDbEntity
  8
0
  6
Continuous
 62
     7
370
    30
100
AcDbCircle
 10
2.5227659797
 20
4.4879663963
 30
0.0
 40
0.0309999999999997
100
AcDbArc
 50
270.0
 51
0.0
  0
LINE
  5
275
330
1F
100
AcDbEntity
  8
0
  6
Continuous
 62
     7
370
    30
100
AcDbLine
 10
2.5227660451
 20
4.4569664019
 30
0.0
 11
2.5227660451
 21
4.3949664248
 31
0.0
  0
LINE
  5
276
330
1F
100
AcDbEntity
  8
0
  6
Continuous
 62
     7
370
    30
100
AcDbLine
 10
2.5227660451
 20
4.3949664248
 30
0.0
 11
2.4657658769
 21
4.3949664248
 31
0.0
  0
LINE
  5
277
330
1F
100
AcDbEntity
  8
0
  6
Continuous
 62
     7
370
    30
100
AcDbLine
 10
2.4657658769
 20
4.3949664248
 30
0.0
 11
2.4657658769
 21
4.4569664019
 31
0.0
  0
LINE
  5
278
330
1F
100
AcDbEntity
  8
0
  6
Continuous
 62
     7
370
    30
100
AcDbLine
 10
2.4657658769
 20
4.4569664019
 30
0.0
 11
2.3977658357
 21
4.4569664019
 31
0.0
  0
LINE
  5
279
330
1F
100
AcDbEntity
  8
0
  6
Continuous
 62
     7
370
    30
100
AcDbLine
 10
2.3977658357
 20
4.4569664019
 30
0.0
 11
2.3977658357
 21
3.6919663792
 31
0.0
  0
LINE
  5
27A
330
1F
100
AcDbEntity
  8
0
  6
Continuous
 62
     7
370
    30
100
AcDbLine
 10
2.3977658357
 20
3.6919663792
 30
0.0
 11
2.4657658769
 21
3.6919663792
 31
0.0
  0
LINE
  5
27B
330
1F
100
AcDbEntity
  8
0
  6
Continuous
 62
     7
370
    30
100
AcDbLine
 10
2.4657658769
 20
3.6919663792
 30
0.0
 11
2.4657658769
 21
3.7549663914
 31
0.0
  0
LINE
  5
27C
330
1F
100
AcDbEntity
  8
0
  6
Continuous
 62
     7
370
    30
100
AcDbLine
 10
2.4657658769
 20
3.7549663914
 30
0.0
 11
2.5227660451
 21
3.7549663914
 31
0.0
  0
LINE
  5
27D
330
1F
100
AcDbEntity
  8
0
  6
Continuous
 62
     7
370
    30
100
AcDbLine
 10
2.5227660451
 20
3.7549663914
 30
0.0
 11
2.5227660451
 21
3.6609663907
 31
0.0
  0
ARC
  5
27E
330
1F
100
AcDbEntity
  8
0
  6
Continuous
 62
     7
370
    30
100
AcDbCircle
 10
2.4917659797
 20
3.6609663963
 30
0.0
 40
0.0310000000000001
100
AcDbArc
 50
270.0
 51
0.0
  0
LINE
  5
27F
330
1F
100
AcDbEntity
  8
0
  6
Continuous
 62
     7
370
    30
100
AcDbLine
 10
2.4917660565
 20
3.6299664021
 30
0.0
 11
2.3977658357
 21
3.6299664021
 31
0.0
  0
LINE
  5
280
330
1F
100
AcDbEntity
  8
0
  6
Continuous
 62
     7
370
    30
100
AcDbLine
 10
2.3977658357
 20
3.6299664021
 30
0.0
 11
2.3977658357
 21
3.2379663964
 31
0.0
  0
LINE
  5
281
330
1F
100
AcDbEntity
  8
0
  6
Continuous
 62
     7
370
    30
100
AcDbLine
 10
2.3977658357
 20
3.2379663964
 30
0.0
 11
2.4677660938
 21
3.2379663964
 31
0.0
  0
LINE
  5
282
330
1F
100
AcDbEntity
  8
0
  6
Continuous
 62
     7
370
    30
100
AcDbLine
 10
2.4677660938
 20
3.2379663964
 30
0.0
 11
2.4677660938
 21
3.1759663963
 31
0.0
  0
LINE
  5
283
330
1F
100
AcDbEntity
  8
0
  6
Continuous
 62
     7
370
    30
100
AcDbLine
 10
2.4677660938
 20
3.1759663963
 30
0.0
 11
2.3977658357
 21
3.1759663963
 31
0.0
  0
LINE
  5
284
330
1F
100
AcDbEntity
  8
0
  6
Continuous
 62
     7
370
    30
100
AcDbLine
 10
2.3977658357
 20
3.1759663963
 30
0.0
 11
2.3977658357
 21
3.1139663963
 31
0.0
  0
LINE
  5
285
330
1F
100
AcDbEntity
  8
0
  6
Continuous
 62
     7
370
    30
100
AcDbLine
 10
2.3357658586
 20
3.1139663963
 30
0.0
 11
2.3977658357
 21
3.1139663963
 31
0.0
  0
LINE
  5
286
330
1F
100
AcDbEntity
  8
0
  6
Continuous
 62
     7
370
    30
100
AcDbLine
 10
6.0857659783
 20
3.1139663963
 30
0.0
 11
6.8357659143
 21
3.1139663963
 31
0.0
  0
LINE
  5
287
330
1F
100
AcDbEntity
  8
0
  6
Continuous
 62
     7
370
    30
100
AcDbLine
 10
6.0857659783
 20
3.1639663966
 30
0.0
 11
6.3361744189
 21
3.1639663966
 31
0.0
  0
ARC
  5
288
330
1F
100
AcDbEntity
  8
0
  6
Continuous
 62
     7
370
    30
100
AcDbCircle
 10
6.3361743969
 20
3.1889663963
 30
0.0
 40
0.0249999999999999
100
AcDbArc
 50
270.0
 51
21.86614513
  0
ARC
  5
289
330
1F
100
AcDbEntity
  8
0
  6
Continuous
 62
     7
370
    30
100
AcDbCircle
 10
6.4607659797
 20
3.2389663963
 30
0.0
 40
0.1092500000000005
100
AcDbArc
 50
103.2283724921
 51
201.86614513
  0
LINE
  5
28A
330
1F
100
AcDbEntity
  8
0
  6
Continuous
 62
     7
370
    30
100
AcDbLine
 10
6.4357659484
 20
3.3453175204
 30
0.0
 11
6.4357659484
 21
4.1864785732
 31
0.0
  0
ARC
  5
28B
330
1F
100
AcDbEntity
  8
0
  6
Continuous
 62
     7
370
    30
100
AcDbCircle
 10
6.3607659797
 20
4.1864785617
 30
0.0
 40
0.0750000000000002
100
AcDbArc
 50
0.0
 51
83.3002348222
  0
ARC
  5
28C
330
1F
100
AcDbEntity
  8
0
  6
Continuous
 62
     7
370
    30
100
AcDbCircle
 10
6.3747659797
 20
4.3056590971
 30
0.0
 40
0.0450000000000004
100
AcDbArc
 50
180.0
 51
263.3002348222
  0
LINE
  5
28D
330
1F
100
AcDbEntity
  8
0
  6
Continuous
 62
     7
370
    30
100
AcDbLine
 10
6.3297659663
 20
4.3056591164
 30
0.0
 11
6.3297659663
 21
4.3809663732
 31
0.0
  0
ARC
  5
28E
330
1F
100
AcDbEntity
  8
0
  6
Continuous
 62
     7
370
    30
100
AcDbCircle
 10
6.3397659797
 20
4.3809663963
 30
0.0
 40
0.0099999999999998
100
AcDbArc
 50
90.0
 51
180.0
  0
LINE
  5
28F
330
1F
100
AcDbEntity
  8
0
  6
Continuous
 62
     7
370
    30
100
AcDbLine
 10
6.3462019764
 20
4.390966431
 30
0.0
 11
6.379765962
 21
4.3509663464
 31
0.0
  0
LINE
  5
290
330
1F
100
AcDbEntity
  8
0
  6
Continuous
 62
     7
370
    30
100
AcDbLine
 10
6.379765962
 20
4.3509663464
 30
0.0
 11
6.3709496372
 21
4.300966424
 31
0.0
  0
LINE
  5
291
330
1F
100
AcDbEntity
  8
0
  6
Continuous
 62
     7
370
    30
100
AcDbLine
 10
6.4357659484
 20
4.300966424
 30
0.0
 11
6.4357659484
 21
4.9259663706
 31
0.0
  0
LINE
  5
292
330
1F
100
AcDbEntity
  8
0
  6
Continuous
 62
     7
370
    30
100
AcDbLine
 10
6.4357659484
 20
4.9259663706
 30
0.0
 11
6.4857659441
 21
4.9259663706
 31
0.0
  0
LINE
  5
293
330
1F
100
AcDbEntity
  8
0
  6
Continuous
 62
     7
370
    30
100
AcDbLine
 10
6.4857659441
 20
4.9259663706
 30
0.0
 11
6.4857659441
 21
4.300966424
 31
0.0
  0
LINE
  5
294
330
1F
100
AcDbEntity
  8
0
  6
Continuous
 62
     7
370
    30
100
AcDbLine
 10
6.4857659441
 20
4.300966424
 30
0.0
 11
6.5505823287
 21
4.300966424
 31
0.0
  0
LINE
  5
295
330
1F
100
AcDbEntity
  8
0
  6
Continuous
 62
     7
370
    30
100
AcDbLine
 10
6.5505823287
 20
4.300966424
 30
0.0
 11
6.5417660039
 21
4.3509663464
 31
0.0
  0
LINE
  5
296
330
1F
100
AcDbEntity
  8
0
  6
Continuous
 62
     7
370
    30
100
AcDbLine
 10
6.5417660039
 20
4.3509663464
 30
0.0
 11
6.5753299895
 21
4.390966431
 31
0.0
  0
ARC
  5
297
330
1F
100
AcDbEntity
  8
0
  6
Continuous
 62
     7
370
    30
100
AcDbCircle
 10
6.5817659797
 20
4.3809663963
 30
0.0
 40
0.0099999999999998
100
AcDbArc
 50
0.0
 51
90.0
  0
LINE
  5
298
330
1F
100
AcDbEntity
  8
0
  6
Continuous
 62
     7
370
    30
100
AcDbLine
 10
6.5917659996
 20
4.3809663732
 30
0.0
 11
6.5917659996
 21
4.3056591164
 31
0.0
  0
ARC
  5
299
330
1F
100
AcDbEntity
  8
0
  6
Continuous
 62
     7
370
    30
100
AcDbCircle
 10
6.5467659797
 20
4.3056590971
 30
0.0
 40
0.0450000000000004
100
AcDbArc
 50
276.6997651778
 51
0.0
  0
ARC
  5
29A
330
1F
100
AcDbEntity
  8
0
  6
Continuous
 62
     7
370
    30
100
AcDbCircle
 10
6.5607659797
 20
4.1864785617
 30
0.0
 40
0.075
100
AcDbArc
 50
96.6997651778
 51
180.0
  0
LINE
  5
29B
330
1F
100
AcDbEntity
  8
0
  6
Continuous
 62
     7
370
    30
100
AcDbLine
 10
6.4857659441
 20
4.1864785732
 30
0.0
 11
6.4857659441
 21
3.2982163945
 31
0.0
  0
LINE
  5
29C
330
1F
100
AcDbEntity
  8
0
  6
Continuous
 62
     7
370
    30
100
AcDbLine
 10
6.4857659441
 20
3.2982163945
 30
0.0
 11
6.4607660196
 21
3.2982163945
 31
0.0
  0
ARC
  5
29D
330
1F
100
AcDbEntity
  8
0
  6
Continuous
 62
     7
370
    30
100
AcDbCircle
 10
6.4607659797
 20
3.2389663963
 30
0.0
 40
0.05925
100
AcDbArc
 50
90.0
 51
346.9332707857
  0
ARC
  5
29E
330
1F
100
AcDbEntity
  8
0
  6
Continuous
 62
     7
370
    30
100
AcDbCircle
 10
6.5428345295
 20
3.2199186764
 30
0.0
 40
0.0250000000000012
100
AcDbArc
 50
346.9332707857
 51
166.9332707857
  0
ARC
  5
29F
330
1F
100
AcDbEntity
  8
0
  6
Continuous
 62
     7
370
    30
100
AcDbCircle
 10
6.4607659797
 20
3.2389663963
 30
0.0
 40
0.1092500000000007
100
AcDbArc
 50
338.13385487
 51
346.9332707857
  0
ARC
  5
2A0
330
1F
100
AcDbEntity
  8
0
  6
Continuous
 62
     7
370
    30
100
AcDbCircle
 10
6.5853575625
 20
3.1889663963
 30
0.0
 40
0.0250000000000005
100
AcDbArc
 50
158.13385487
 51
270.0
  0
LINE
  5
2A1
330
1F
100
AcDbEntity
  8
0
  6
Continuous
 62
     7
370
    30
100
AcDbLine
 10
6.5853576203
 20
3.1639663966
 30
0.0
 11
6.8357659143
 21
3.1639663966
 31
0.0
  0
LINE
  5
2A2
330
1F
100
AcDbEntity
  8
0
  6
Continuous
 62
     7
370
    30
100
AcDbLine
 10
6.8357659143
 20
3.1639663966
 30
0.0
 11
6.8357659143
 21
3.1139663963
 31
0.0
  0
LINE
  5
2A3
330
1F
100
AcDbEntity
  8
0
  6
Continuous
 62
     7
370
    30
100
AcDbLine
 10
6.0857659783
 20
3.1139663963
 30
0.0
 11
6.0857659783
 21
3.1639663966
 31
0.0
  0
LINE
  5
2A4
330
1F
100
AcDbEntity
  8
0
  6
Continuous
 62
     7
370
    30
100
AcDbLine
 10
6.3397659508
 20
4.390966431
 30
0.0
 11
6.3462019764
 21
4.390966431
 31
0.0
  0
LINE
  5
2A5
330
1F
100
AcDbEntity
  8
0
  6
Continuous
 62
     7
370
    30
100
AcDbLine
 10
6.3709496372
 20
4.300966424
 30
0.0
 11
6.4357659484
 21
4.300966424
 31
0.0
  0
LINE
  5
2A6
330
1F
100
AcDbEntity
  8
0
  6
Continuous
 62
     7
370
    30
100
AcDbLine
 10
6.5753299895
 20
4.390966431
 30
0.0
 11
6.5817659418
 21
4.390966431
 31
0.0
  0
LINE
  5
2A7
330
1F
100
AcDbEntity
  8
0
  6
Continuous
 62
     7
370
    30
100
AcDbLine
 10
8.0067658934
 20
3.1639663966
 30
0.0
 11
8.0067658934
 21
3.1139663963
 31
0.0
  0
LINE
  5
2A8
330
1F
100
AcDbEntity
  8
0
  6
Continuous
 62
     7
370
    30
100
AcDbLine
 10
7.3357660182
 20
3.1139663963
 30
0.0
 11
8.0067658934
 21
3.1139663963
 31
0.0
  0
LINE
  5
2A9
330
1F
100
AcDbEntity
  8
0
  6
Continuous
 62
     7
370
    30
100
AcDbLine
 10
7.3357660182
 20
3.1139663963
 30
0.0
 11
7.3357660182
 21
3.1639663966
 31
0.0
  0
LINE
  5
2AA
330
1F
100
AcDbEntity
  8
0
  6
Continuous
 62
     7
370
    30
100
AcDbLine
 10
7.3357660182
 20
3.1639663966
 30
0.0
 11
7.6857658416
 21
3.1639663966
 31
0.0
  0
LINE
  5
2AB
330
1F
100
AcDbEntity
  8
0
  6
Continuous
 62
     7
370
    30
100
AcDbLine
 10
7.6857658416
 20
3.1639663966
 30
0.0
 11
7.6857658416
 21
3.3423482147
 31
0.0
  0
ARC
  5
2AC
330
1F
100
AcDbEntity
  8
0
  6
Continuous
 62
     7
370
    30
100
AcDbCircle
 10
7.7587659797
 20
3.4259663963
 30
0.0
 40
0.110999999999999
100
AcDbArc
 50
131.1214761682
 51
228.8785238318
  0
ARC
  5
2AD
330
1F
100
AcDbEntity
  8
0
  6
Continuous
 62
     7
370
    30
100
AcDbCircle
 10
7.6107659797
 20
4.1864785617
 30
0.0
 40
0.0750000000000011
100
AcDbArc
 50
0.0
 51
83.3002348222
  0
ARC
  5
2AE
330
1F
100
AcDbEntity
  8
0
  6
Continuous
 62
     7
370
    30
100
AcDbCircle
 10
7.6247659797
 20
4.3056590971
 30
0.0
 40
0.044999999999999
100
AcDbArc
 50
180.0
 51
263.3002348222
  0
LINE
  5
2AF
330
1F
100
AcDbEntity
  8
0
  6
Continuous
 62
     7
370
    30
100
AcDbLine
 10
7.5797659328
 20
4.3056591164
 30
0.0
 11
7.5797659328
 21
4.3809663732
 31
0.0
  0
ARC
  5
2B0
330
1F
100
AcDbEntity
  8
0
  6
Continuous
 62
     7
370
    30
100
AcDbCircle
 10
7.5897659797
 20
4.3809663963
 30
0.0
 40
0.0100000000000016
100
AcDbArc
 50
90.0
 51
180.0
  0
LINE
  5
2B1
330
1F
100
AcDbEntity
  8
0
  6
Continuous
 62
     7
370
    30
100
AcDbLine
 10
7.5897659906
 20
4.390966431
 30
0.0
 11
7.596201943
 21
4.390966431
 31
0.0
  0
LINE
  5
2B2
330
1F
100
AcDbEntity
  8
0
  6
Continuous
 62
     7
370
    30
100
AcDbLine
 10
7.596201943
 20
4.390966431
 30
0.0
 11
7.6297659286
 21
4.3509663464
 31
0.0
  0
LINE
  5
2B3
330
1F
100
AcDbEntity
  8
0
  6
Continuous
 62
     7
370
    30
100
AcDbLine
 10
7.6297659286
 20
4.3509663464
 30
0.0
 11
7.6209496037
 21
4.300966424
 31
0.0
  0
LINE
  5
2B4
330
1F
100
AcDbEntity
  8
0
  6
Continuous
 62
     7
370
    30
100
AcDbLine
 10
7.6209496037
 20
4.300966424
 30
0.0
 11
7.6857658416
 21
4.300966424
 31
0.0
  0
LINE
  5
2B5
330
1F
100
AcDbEntity
  8
0
  6
Continuous
 62
     7
370
    30
100
AcDbLine
 10
7.6857658416
 20
4.300966424
 30
0.0
 11
7.6857658416
 21
4.9259663706
 31
0.0
  0
LINE
  5
2B6
330
1F
100
AcDbEntity
  8
0
  6
Continuous
 62
     7
370
    30
100
AcDbLine
 10
7.6857658416
 20
4.9259663706
 30
0.0
 11
7.735765984
 21
4.9259663706
 31
0.0
  0
LINE
  5
2B7
330
1F
100
AcDbEntity
  8
0
  6
Continuous
 62
     7
370
    30
100
AcDbLine
 10
7.735765984
 20
4.9259663706
 30
0.0
 11
7.735765984
 21
3.4824641927
 31
0.0
  0
ARC
  5
2B8
330
1F
100
AcDbEntity
  8
0
  6
Continuous
 62
     7
370
    30
100
AcDbCircle
 10
7.7587659797
 20
3.4259663963
 30
0.0
 40
0.0609999999999997
100
AcDbArc
 50
112.1510214415
 51
31.5198585799
  0
ARC
  5
2B9
330
1F
100
AcDbEntity
  8
0
  6
Continuous
 62
     7
370
    30
100
AcDbCircle
 10
7.8320774551
 20
3.4709266852
 30
0.0
 40
0.0250000000000007
100
AcDbArc
 50
31.5198585799
 51
211.5198585799
  0
ARC
  5
2BA
330
1F
100
AcDbEntity
  8
0
  6
Continuous
 62
     7
370
    30
100
AcDbCircle
 10
7.7587659797
 20
3.4259663963
 30
0.0
 40
0.1110000000000004
100
AcDbArc
 50
258.0412625374
 51
31.5198585799
  0
LINE
  5
2BB
330
1F
100
AcDbEntity
  8
0
  6
Continuous
 62
     7
370
    30
100
AcDbLine
 10
7.735765984
 20
3.3173754232
 30
0.0
 11
7.735765984
 21
3.1639663966
 31
0.0
  0
LINE
  5
2BC
330
1F
100
AcDbEntity
  8
0
  6
Continuous
 62
     7
370
    30
100
AcDbLine
 10
7.735765984
 20
3.1639663966
 30
0.0
 11
8.0067658934
 21
3.1639663966
 31
0.0
  0
LINE
  5
2BD
330
1F
100
AcDbEntity
  8
0
  6
Continuous
 62
     7
370
    30
100
AcDbLine
 10
7.6857658416
 20
3.5095845628
 30
0.0
 11
7.6857658416
 21
4.1864785732
 31
0.0
  0
LINE
  5
2BE
330
1F
100
AcDbEntity
  8
0
  6
Continuous
 62
     7
370
    30
100
AcDbLine
 10
2.6857659754
 20
3.4824641927
 30
0.0
 11
2.6857659754
 21
4.9259663706
 31
0.0
  0
LINE
  5
2BF
330
1F
100
AcDbEntity
  8
0
  6
Continuous
 62
     7
370
    30
100
AcDbLine
 10
2.6857659754
 20
4.9259663706
 30
0.0
 11
2.7357661178
 21
4.9259663706
 31
0.0
  0
LINE
  5
2C0
330
1F
100
AcDbEntity
  8
0
  6
Continuous
 62
     7
370
    30
100
AcDbLine
 10
2.7357661178
 20
4.9259663706
 30
0.0
 11
2.7357661178
 21
4.300966424
 31
0.0
  0
LINE
  5
2C1
330
1F
100
AcDbEntity
  8
0
  6
Continuous
 62
     7
370
    30
100
AcDbLine
 10
2.7357661178
 20
4.300966424
 30
0.0
 11
2.8005823557
 21
4.300966424
 31
0.0
  0
LINE
  5
2C2
330
1F
100
AcDbEntity
  8
0
  6
Continuous
 62
     7
370
    30
100
AcDbLine
 10
2.8005823557
 20
4.300966424
 30
0.0
 11
2.7917660309
 21
4.3509663464
 31
0.0
  0
LINE
  5
2C3
330
1F
100
AcDbEntity
  8
0
  6
Continuous
 62
     7
370
    30
100
AcDbLine
 10
2.7917660309
 20
4.3509663464
 30
0.0
 11
2.8253300165
 21
4.390966431
 31
0.0
  0
LINE
  5
2C4
330
1F
100
AcDbEntity
  8
0
  6
Continuous
 62
     7
370
    30
100
AcDbLine
 10
2.8253300165
 20
4.390966431
 30
0.0
 11
2.8317659688
 21
4.390966431
 31
0.0
  0
ARC
  5
2C5
330
1F
100
AcDbEntity
  8
0
  6
Continuous
 62
     7
370
    30
100
AcDbCircle
 10
2.8317659797
 20
4.3809663963
 30
0.0
 40
0.0100000000000007
100
AcDbArc
 50
0.0
 51
90.0
  0
LINE
  5
2C6
330
1F
100
AcDbEntity
  8
0
  6
Continuous
 62
     7
370
    30
100
AcDbLine
 10
2.8417660266
 20
4.3809663732
 30
0.0
 11
2.8417660266
 21
4.3056591164
 31
0.0
  0
ARC
  5
2C7
330
1F
100
AcDbEntity
  8
0
  6
Continuous
 62
     7
370
    30
100
AcDbCircle
 10
2.7967659797
 20
4.3056590971
 30
0.0
 40
0.0449999999999986
100
AcDbArc
 50
276.6997651778
 51
0.0
  0
LINE
  5
2C8
330
1F
100
AcDbEntity
  8
0
  6
Continuous
 62
     7
370
    30
100
AcDbLine
 10
2.414766066
 20
3.1139663963
 30
0.0
 11
3.0857659412
 21
3.1139663963
 31
0.0
  0
ARC
  5
2C9
330
1F
100
AcDbEntity
  8
0
  6
Continuous
 62
     7
370
    30
100
AcDbCircle
 10
2.8107659797
 20
4.1864785617
 30
0.0
 40
0.0750000000000009
100
AcDbArc
 50
96.6997651778
 51
180.0
  0
LINE
  5
2CA
330
1F
100
AcDbEntity
  8
0
  6
Continuous
 62
     7
370
    30
100
AcDbLine
 10
2.7357661178
 20
4.1864785732
 30
0.0
 11
2.7357661178
 21
3.5095845628
 31
0.0
  0
ARC
  5
2CB
330
1F
100
AcDbEntity
  8
0
  6
Continuous
 62
     7
370
    30
100
AcDbCircle
 10
2.6627659797
 20
3.4259663963
 30
0.0
 40
0.1109999999999996
100
AcDbArc
 50
311.1214761682
 51
48.8785238318
  0
LINE
  5
2CC
330
1F
100
AcDbEntity
  8
0
  6
Continuous
 62
     7
370
    30
100
AcDbLine
 10
2.7357661178
 20
3.3423482147
 30
0.0
 11
2.7357661178
 21
3.1639663966
 31
0.0
  0
LINE
  5
2CD
330
1F
100
AcDbEntity
  8
0
  6
Continuous
 62
     7
370
    30
100
AcDbLine
 10
2.7357661178
 20
3.1639663966
 30
0.0
 11
3.0857659412
 21
3.1639663966
 31
0.0
  0
LINE
  5
2CE
330
1F
100
AcDbEntity
  8
0
  6
Continuous
 62
     7
370
    30
100
AcDbLine
 10
3.0857659412
 20
3.1639663966
 30
0.0
 11
3.0857659412
 21
3.1139663963
 31
0.0
  0
LINE
  5
2CF
330
1F
100
AcDbEntity
  8
0
  6
Continuous
 62
     7
370
    30
100
AcDbLine
 10
2.414766066
 20
3.1139663963
 30
0.0
 11
2.414766066
 21
3.1639663966
 31
0.0
  0
LINE
  5
2D0
330
1F
100
AcDbEntity
  8
0
  6
Continuous
 62
     7
370
    30
100
AcDbLine
 10
2.414766066
 20
3.1639663966
 30
0.0
 11
2.6857659754
 21
3.1639663966
 31
0.0
  0
LINE
  5
2D1
330
1F
100
AcDbEntity
  8
0
  6
Continuous
 62
     7
370
    30
100
AcDbLine
 10
2.6857659754
 20
3.1639663966
 30
0.0
 11
2.6857659754
 21
3.3173754232
 31
0.0
  0
ARC
  5
2D2
330
1F
100
AcDbEntity
  8
0
  6
Continuous
 62
     7
370
    30
100
AcDbCircle
 10
2.6627659797
 20
3.4259663963
 30
0.0
 40
0.1110000000000002
100
AcDbArc
 50
148.4801414201
 51
281.9587374626
  0
ARC
  5
2D3
330
1F
100
AcDbEntity
  8
0
  6
Continuous
 62
     7
370
    30
100
AcDbCircle
 10
2.5894545043
 20
3.4709266852
 30
0.0
 40
0.0250000000000003
100
AcDbArc
 50
328.4801414201
 51
148.4801414201
  0
ARC
  5
2D4
330
1F
100
AcDbEntity
  8
0
  6
Continuous
 62
     7
370
    30
100
AcDbCircle
 10
2.6627659797
 20
3.4259663963
 30
0.0
 40
0.0609999999999997
100
AcDbArc
 50
148.4801414201
 51
67.8489785585
  0
LINE
  5
2D5
330
1F
100
AcDbEntity
  8
0
  6
Continuous
 62
     7
370
    30
100
AcDbLine
 10
3.5857660452
 20
3.1139663963
 30
0.0
 11
4.3357659811
 21
3.1139663963
 31
0.0
  0
LINE
  5
2D6
330
1F
100
AcDbEntity
  8
0
  6
Continuous
 62
     7
370
    30
100
AcDbLine
 10
3.5857660452
 20
3.1639663966
 30
0.0
 11
3.8361743391
 21
3.1639663966
 31
0.0
  0
ARC
  5
2D7
330
1F
100
AcDbEntity
  8
0
  6
Continuous
 62
     7
370
    30
100
AcDbCircle
 10
3.8361743969
 20
3.1889663963
 30
0.0
 40
0.0250000000000001
100
AcDbArc
 50
270.0
 51
21.86614513
  0
ARC
  5
2D8
330
1F
100
AcDbEntity
  8
0
  6
Continuous
 62
     7
370
    30
100
AcDbCircle
 10
3.9607659797
 20
3.2389663963
 30
0.0
 40
0.1092500000000005
100
AcDbArc
 50
103.2283724921
 51
201.86614513
  0
LINE
  5
2D9
330
1F
100
AcDbEntity
  8
0
  6
Continuous
 62
     7
370
    30
100
AcDbLine
 10
3.9357660153
 20
3.3453175204
 30
0.0
 11
3.9357660153
 21
4.1864785732
 31
0.0
  0
ARC
  5
2DA
330
1F
100
AcDbEntity
  8
0
  6
Continuous
 62
     7
370
    30
100
AcDbCircle
 10
3.8607659797
 20
4.1864785617
 30
0.0
 40
0.0750000000000002
100
AcDbArc
 50
0.0
 51
83.3002348222
  0
ARC
  5
2DB
330
1F
100
AcDbEntity
  8
0
  6
Continuous
 62
     7
370
    30
100
AcDbCircle
 10
3.8747659797
 20
4.3056590971
 30
0.0
 40
0.0449999999999999
100
AcDbArc
 50
180.0
 51
263.3002348222
  0
LINE
  5
2DC
330
1F
100
AcDbEntity
  8
0
  6
Continuous
 62
     7
370
    30
100
AcDbLine
 10
3.8297659598
 20
4.3056591164
 30
0.0
 11
3.8297659598
 21
4.3809663732
 31
0.0
  0
ARC
  5
2DD
330
1F
100
AcDbEntity
  8
0
  6
Continuous
 62
     7
370
    30
100
AcDbCircle
 10
3.8397659797
 20
4.3809663963
 30
0.0
 40
0.0100000000000002
100
AcDbArc
 50
90.0
 51
180.0
  0
LINE
  5
2DE
330
1F
100
AcDbEntity
  8
0
  6
Continuous
 62
     7
370
    30
100
AcDbLine
 10
3.8397660176
 20
4.390966431
 30
0.0
 11
3.84620197
 21
4.390966431
 31
0.0
  0
LINE
  5
2DF
330
1F
100
AcDbEntity
  8
0
  6
Continuous
 62
     7
370
    30
100
AcDbLine
 10
3.84620197
 20
4.390966431
 30
0.0
 11
3.8797659555
 21
4.3509663464
 31
0.0
  0
LINE
  5
2E0
330
1F
100
AcDbEntity
  8
0
  6
Continuous
 62
     7
370
    30
100
AcDbLine
 10
3.8797659555
 20
4.3509663464
 30
0.0
 11
3.8709496307
 21
4.300966424
 31
0.0
  0
LINE
  5
2E1
330
1F
100
AcDbEntity
  8
0
  6
Continuous
 62
     7
370
    30
100
AcDbLine
 10
3.8709496307
 20
4.300966424
 30
0.0
 11
3.9357660153
 21
4.300966424
 31
0.0
  0
LINE
  5
2E2
330
1F
100
AcDbEntity
  8
0
  6
Continuous
 62
     7
370
    30
100
AcDbLine
 10
3.9357660153
 20
4.300966424
 30
0.0
 11
3.9357660153
 21
4.9259663706
 31
0.0
  0
LINE
  5
2E3
330
1F
100
AcDbEntity
  8
0
  6
Continuous
 62
     7
370
    30
100
AcDbLine
 10
3.9357660153
 20
4.9259663706
 30
0.0
 11
3.985766011
 21
4.9259663706
 31
0.0
  0
LINE
  5
2E4
330
1F
100
AcDbEntity
  8
0
  6
Continuous
 62
     7
370
    30
100
AcDbLine
 10
3.985766011
 20
4.9259663706
 30
0.0
 11
3.985766011
 21
4.300966424
 31
0.0
  0
LINE
  5
2E5
330
1F
100
AcDbEntity
  8
0
  6
Continuous
 62
     7
370
    30
100
AcDbLine
 10
3.985766011
 20
4.300966424
 30
0.0
 11
4.0505823223
 21
4.300966424
 31
0.0
  0
LINE
  5
2E6
330
1F
100
AcDbEntity
  8
0
  6
Continuous
 62
     7
370
    30
100
AcDbLine
 10
4.0505823223
 20
4.300966424
 30
0.0
 11
4.0417659974
 21
4.3509663464
 31
0.0
  0
LINE
  5
2E7
330
1F
100
AcDbEntity
  8
0
  6
Continuous
 62
     7
370
    30
100
AcDbLine
 10
4.0417659974
 20
4.3509663464
 30
0.0
 11
4.075329983
 21
4.390966431
 31
0.0
  0
LINE
  5
2E8
330
1F
100
AcDbEntity
  8
0
  6
Continuous
 62
     7
370
    30
100
AcDbLine
 10
4.075329983
 20
4.390966431
 30
0.0
 11
4.0817660087
 21
4.390966431
 31
0.0
  0
ARC
  5
2E9
330
1F
100
AcDbEntity
  8
0
  6
Continuous
 62
     7
370
    30
100
AcDbCircle
 10
4.0817659797
 20
4.3809663963
 30
0.0
 40
0.0099999999999998
100
AcDbArc
 50
0.0
 51
90.0
  0
LINE
  5
2EA
330
1F
100
AcDbEntity
  8
0
  6
Continuous
 62
     7
370
    30
100
AcDbLine
 10
4.0917659932
 20
4.3809663732
 30
0.0
 11
4.0917659932
 21
4.3056591164
 31
0.0
  0
ARC
  5
2EB
330
1F
100
AcDbEntity
  8
0
  6
Continuous
 62
     7
370
    30
100
AcDbCircle
 10
4.0467659797
 20
4.3056590971
 30
0.0
 40
0.0449999999999999
100
AcDbArc
 50
276.6997651778
 51
0.0
  0
ARC
  5
2EC
330
1F
100
AcDbEntity
  8
0
  6
Continuous
 62
     7
370
    30
100
AcDbCircle
 10
4.0607659797
 20
4.1864785617
 30
0.0
 40
0.075
100
AcDbArc
 50
96.6997651778
 51
180.0
  0
LINE
  5
2ED
330
1F
100
AcDbEntity
  8
0
  6
Continuous
 62
     7
370
    30
100
AcDbLine
 10
3.985766011
 20
4.1864785732
 30
0.0
 11
3.985766011
 21
3.2982163945
 31
0.0
  0
LINE
  5
2EE
330
1F
100
AcDbEntity
  8
0
  6
Continuous
 62
     7
370
    30
100
AcDbLine
 10
3.985766011
 20
3.2982163945
 30
0.0
 11
3.9607659398
 21
3.2982163945
 31
0.0
  0
ARC
  5
2EF
330
1F
100
AcDbEntity
  8
0
  6
Continuous
 62
     7
370
    30
100
AcDbCircle
 10
3.9607659797
 20
3.2389663963
 30
0.0
 40
0.0592500000000005
100
AcDbArc
 50
90.0
 51
346.9332707857
  0
ARC
  5
2F0
330
1F
100
AcDbEntity
  8
0
  6
Continuous
 62
     7
370
    30
100
AcDbCircle
 10
4.0428345295
 20
3.2199186764
 30
0.0
 40
0.0250000000000003
100
AcDbArc
 50
346.9332707857
 51
166.9332707857
  0
ARC
  5
2F1
330
1F
100
AcDbEntity
  8
0
  6
Continuous
 62
     7
370
    30
100
AcDbCircle
 10
3.9607659797
 20
3.2389663963
 30
0.0
 40
0.1092500000000005
100
AcDbArc
 50
338.13385487
 51
346.9332707857
  0
ARC
  5
2F2
330
1F
100
AcDbEntity
  8
0
  6
Continuous
 62
     7
370
    30
100
AcDbCircle
 10
4.0853575625
 20
3.1889663963
 30
0.0
 40
0.0249999999999996
100
AcDbArc
 50
158.13385487
 51
270.0
  0
LINE
  5
2F3
330
1F
100
AcDbEntity
  8
0
  6
Continuous
 62
     7
370
    30
100
AcDbLine
 10
4.0853575405
 20
3.1639663966
 30
0.0
 11
4.3357659811
 21
3.1639663966
 31
0.0
  0
LINE
  5
2F4
330
1F
100
AcDbEntity
  8
0
  6
Continuous
 62
     7
370
    30
100
AcDbLine
 10
4.3357659811
 20
3.1639663966
 30
0.0
 11
4.3357659811
 21
3.1139663963
 31
0.0
  0
LINE
  5
2F5
330
1F
100
AcDbEntity
  8
0
  6
Continuous
 62
     7
370
    30
100
AcDbLine
 10
3.5857660452
 20
3.1139663963
 30
0.0
 11
3.5857660452
 21
3.1639663966
 31
0.0
  0
ARC
  5
2F6
330
1F
100
AcDbEntity
  8
0
  6
Continuous
 62
     7
370
    30
100
AcDbCircle
 10
5.2967659797
 20
4.3056590971
 30
0.0
 40
0.0450000000000004
100
AcDbArc
 50
276.6997651778
 51
0.0
  0
ARC
  5
2F7
330
1F
100
AcDbEntity
  8
0
  6
Continuous
 62
     7
370
    30
100
AcDbCircle
 10
5.3107659797
 20
4.1864785617
 30
0.0
 40
0.075
100
AcDbArc
 50
96.6997651778
 51
180.0
  0
ARC
  5
2F8
330
1F
100
AcDbEntity
  8
0
  6
Continuous
 62
     7
370
    30
100
AcDbCircle
 10
5.2107659797
 20
3.2389663963
 30
0.0
 40
0.0592500000000001
100
AcDbArc
 50
90.0
 51
346.9332707857
  0
ARC
  5
2F9
330
1F
100
AcDbEntity
  8
0
  6
Continuous
 62
     7
370
    30
100
AcDbCircle
 10
5.3353575625
 20
3.1889663963
 30
0.0
 40
0.0249999999999999
100
AcDbArc
 50
158.13385487
 51
270.0
  0
LINE
  5
2FA
330
1F
100
AcDbEntity
  8
0
  6
Continuous
 62
     7
370
    30
100
AcDbLine
 10
4.8357659751
 20
3.1139663963
 30
0.0
 11
5.5857659844
 21
3.1139663963
 31
0.0
  0
LINE
  5
2FB
330
1F
100
AcDbEntity
  8
0
  6
Continuous
 62
     7
370
    30
100
AcDbLine
 10
4.8357659751
 20
3.1639663966
 30
0.0
 11
5.0861743973
 21
3.1639663966
 31
0.0
  0
ARC
  5
2FC
330
1F
100
AcDbEntity
  8
0
  6
Continuous
 62
     7
370
    30
100
AcDbCircle
 10
5.2107659797
 20
3.2389663963
 30
0.0
 40
0.1092500000000005
100
AcDbArc
 50
103.2283724921
 51
201.86614513
  0
ARC
  5
2FD
330
1F
100
AcDbEntity
  8
0
  6
Continuous
 62
     7
370
    30
100
AcDbCircle
 10
5.1247659797
 20
4.3056590971
 30
0.0
 40
0.0450000000000004
100
AcDbArc
 50
180.0
 51
263.3002348222
  0
LINE
  5
2FE
330
1F
100
AcDbEntity
  8
0
  6
Continuous
 62
     7
370
    30
100
AcDbLine
 10
5.0797659814
 20
4.3056591164
 30
0.0
 11
5.0797659814
 21
4.3809663732
 31
0.0
  0
LINE
  5
2FF
330
1F
100
AcDbEntity
  8
0
  6
Continuous
 62
     7
370
    30
100
AcDbLine
 10
5.2357659799
 20
4.1864785732
 30
0.0
 11
5.2357659799
 21
3.2982163945
 31
0.0
  0
LINE
  5
300
330
1F
100
AcDbEntity
  8
0
  6
Continuous
 62
     7
370
    30
100
AcDbLine
 10
5.2357659799
 20
3.2982163945
 30
0.0
 11
5.2107659797
 21
3.2982163945
 31
0.0
  0
LINE
  5
301
330
1F
100
AcDbEntity
  8
0
  6
Continuous
 62
     7
370
    30
100
AcDbLine
 10
5.0962019915
 20
4.390966431
 30
0.0
 11
5.1297659771
 21
4.3509663464
 31
0.0
  0
LINE
  5
302
330
1F
100
AcDbEntity
  8
0
  6
Continuous
 62
     7
370
    30
100
AcDbLine
 10
5.1297659771
 20
4.3509663464
 30
0.0
 11
5.120949634
 21
4.300966424
 31
0.0
  0
LINE
  5
303
330
1F
100
AcDbEntity
  8
0
  6
Continuous
 62
     7
370
    30
100
AcDbLine
 10
5.120949634
 20
4.300966424
 30
0.0
 11
5.1857659796
 21
4.300966424
 31
0.0
  0
LINE
  5
304
330
1F
100
AcDbEntity
  8
0
  6
Continuous
 62
     7
370
    30
100
AcDbLine
 10
5.1857659796
 20
4.300966424
 30
0.0
 11
5.1857659796
 21
4.9259663706
 31
0.0
  0
LINE
  5
305
330
1F
100
AcDbEntity
  8
0
  6
Continuous
 62
     7
370
    30
100
AcDbLine
 10
5.1857659796
 20
4.9259663706
 30
0.0
 11
5.2357659799
 21
4.9259663706
 31
0.0
  0
LINE
  5
306
330
1F
100
AcDbEntity
  8
0
  6
Continuous
 62
     7
370
    30
100
AcDbLine
 10
5.2357659799
 20
4.300966424
 30
0.0
 11
5.3005823255
 21
4.300966424
 31
0.0
  0
LINE
  5
307
330
1F
100
AcDbEntity
  8
0
  6
Continuous
 62
     7
370
    30
100
AcDbLine
 10
5.3005823255
 20
4.300966424
 30
0.0
 11
5.2917659823
 21
4.3509663464
 31
0.0
  0
LINE
  5
308
330
1F
100
AcDbEntity
  8
0
  6
Continuous
 62
     7
370
    30
100
AcDbLine
 10
5.2917659823
 20
4.3509663464
 30
0.0
 11
5.3253299679
 21
4.390966431
 31
0.0
  0
LINE
  5
309
330
1F
100
AcDbEntity
  8
0
  6
Continuous
 62
     7
370
    30
100
AcDbLine
 10
5.3253299679
 20
4.390966431
 30
0.0
 11
5.3317659753
 21
4.390966431
 31
0.0
  0
ARC
  5
30A
330
1F
100
AcDbEntity
  8
0
  6
Continuous
 62
     7
370
    30
100
AcDbCircle
 10
5.3317659797
 20
4.3809663963
 30
0.0
 40
0.0100000000000007
100
AcDbArc
 50
0.0
 51
90.0
  0
LINE
  5
30B
330
1F
100
AcDbEntity
  8
0
  6
Continuous
 62
     7
370
    30
100
AcDbLine
 10
5.3417659781
 20
4.3809663732
 30
0.0
 11
5.3417659781
 21
4.3056591164
 31
0.0
  0
ARC
  5
30C
330
1F
100
AcDbEntity
  8
0
  6
Continuous
 62
     7
370
    30
100
AcDbCircle
 10
5.2928345295
 20
3.2199186764
 30
0.0
 40
0.0250000000000003
100
AcDbArc
 50
346.9332707857
 51
166.9332707857
  0
ARC
  5
30D
330
1F
100
AcDbEntity
  8
0
  6
Continuous
 62
     7
370
    30
100
AcDbCircle
 10
5.0861743969
 20
3.1889663963
 30
0.0
 40
0.0249999999999999
100
AcDbArc
 50
270.0
 51
21.86614513
  0
LINE
  5
30E
330
1F
100
AcDbEntity
  8
0
  6
Continuous
 62
     7
370
    30
100
AcDbLine
 10
5.1857659796
 20
3.3453175204
 30
0.0
 11
5.1857659796
 21
4.1864785732
 31
0.0
  0
LINE
  5
30F
330
1F
100
AcDbEntity
  8
0
  6
Continuous
 62
     7
370
    30
100
AcDbLine
 10
5.0897659842
 20
4.390966431
 30
0.0
 11
5.0962019915
 21
4.390966431
 31
0.0
  0
ARC
  5
310
330
1F
100
AcDbEntity
  8
0
  6
Continuous
 62
     7
370
    30
100
AcDbCircle
 10
5.1107659797
 20
4.1864785617
 30
0.0
 40
0.0750000000000011
100
AcDbArc
 50
0.0
 51
83.3002348222
  0
ARC
  5
311
330
1F
100
AcDbEntity
  8
0
  6
Continuous
 62
     7
370
    30
100
AcDbCircle
 10
5.0897659797
 20
4.3809663963
 30
0.0
 40
0.0100000000000007
100
AcDbArc
 50
90.0
 51
180.0
  0
LINE
  5
312
330
1F
100
AcDbEntity
  8
0
  6
Continuous
 62
     7
370
    30
100
AcDbLine
 10
5.2357659799
 20
4.9259663706
 30
0.0
 11
5.2357659799
 21
4.300966424
 31
0.0
  0
ARC
  5
313
330
1F
100
AcDbEntity
  8
0
  6
Continuous
 62
     7
370
    30
100
AcDbCircle
 10
5.2107659797
 20
3.2389663963
 30
0.0
 40
0.1092500000000007
100
AcDbArc
 50
338.13385487
 51
346.9332707857
  0
LINE
  5
314
330
1F
100
AcDbEntity
  8
0
  6
Continuous
 62
     7
370
    30
100
AcDbLine
 10
5.3353575621
 20
3.1639663966
 30
0.0
 11
5.5857659844
 21
3.1639663966
 31
0.0
  0
LINE
  5
315
330
1F
100
AcDbEntity
  8
0
  6
Continuous
 62
     7
370
    30
100
AcDbLine
 10
5.5857659844
 20
3.1639663966
 30
0.0
 11
5.5857659844
 21
3.1139663963
 31
0.0
  0
LINE
  5
316
330
1F
100
AcDbEntity
  8
0
  6
Continuous
 62
     7
370
    30
100
AcDbLine
 10
4.8357659751
 20
3.1139663963
 30
0.0
 11
4.8357659751
 21
3.1639663966
 31
0.0
  0
LINE
  5
317
330
1F
100
AcDbEntity
  8
0
  6
Continuous
 62
     7
370
    30
100
AcDbLine
 10
7.1243255808
 20
7.1650435979
 30
0.0
 11
7.1562659851
 21
7.1650435979
 31
0.0
  0
LINE
  5
318
330
1F
100
AcDbEntity
  8
0
  6
Continuous
 62
     7
370
    30
100
AcDbLine
 10
7.0152659473
 20
7.1650435979
 30
0.0
 11
7.1243255808
 21
7.1650435979
 31
0.0
  0
LINE
  5
319
330
1F
100
AcDbEntity
  8
0
  6
Continuous
 62
     7
370
    30
100
AcDbLine
 10
7.1562659851
 20
7.1377782862
 30
0.0
 11
7.0152659473
 21
7.1377782862
 31
0.0
  0
LINE
  5
31A
330
1F
100
AcDbEntity
  8
0
  6
Continuous
 62
     7
370
    30
100
AcDbLine
 10
7.1807659288
 20
7.1236330363
 30
0.0
 11
6.9907660037
 21
7.1236330363
 31
0.0
  0
LINE
  5
31B
330
1F
100
AcDbEntity
  8
0
  6
Continuous
 62
     7
370
    30
100
AcDbLine
 10
7.1243255808
 20
7.1094880797
 30
0.0
 11
7.1562659851
 21
7.1094880797
 31
0.0
  0
LINE
  5
31C
330
1F
100
AcDbEntity
  8
0
  6
Continuous
 62
     7
370
    30
100
AcDbLine
 10
7.0152659473
 20
7.1094880797
 30
0.0
 11
7.1243255808
 21
7.1094880797
 31
0.0
  0
LINE
  5
31D
330
1F
100
AcDbEntity
  8
0
  6
Continuous
 62
     7
370
    30
100
AcDbLine
 10
7.1562659851
 20
7.0822224747
 30
0.0
 11
7.0152659473
 21
7.0822224747
 31
0.0
  0
LINE
  5
31E
330
1F
100
AcDbEntity
  8
0
  6
Continuous
 62
     7
370
    30
100
AcDbLine
 10
7.1807659288
 20
7.0680775181
 30
0.0
 11
6.9907660037
 21
7.0680775181
 31
0.0
  0
LINE
  5
31F
330
1F
100
AcDbEntity
  8
0
  6
Continuous
 62
     7
370
    30
100
AcDbLine
 10
7.1562659851
 20
7.0266669565
 30
0.0
 11
7.0152659473
 21
7.0266669565
 31
0.0
  0
LINE
  5
320
330
1F
100
AcDbEntity
  8
0
  6
Continuous
 62
     7
370
    30
100
AcDbLine
 10
7.1807659288
 20
7.0125219999
 30
0.0
 11
6.9907660037
 21
7.0125219999
 31
0.0
  0
LINE
  5
321
330
1F
100
AcDbEntity
  8
0
  6
Continuous
 62
     7
370
    30
100
AcDbLine
 10
7.1243255808
 20
7.0539325615
 30
0.0
 11
7.1562659851
 21
7.0539325615
 31
0.0
  0
LINE
  5
322
330
1F
100
AcDbEntity
  8
0
  6
Continuous
 62
     7
370
    30
100
AcDbLine
 10
7.0152659473
 20
7.0539325615
 30
0.0
 11
7.1243255808
 21
7.0539325615
 31
0.0
  0
LINE
  5
323
330
1F
100
AcDbEntity
  8
0
  6
Continuous
 62
     7
370
    30
100
AcDbLine
 10
7.1243255808
 20
6.9983767499
 30
0.0
 11
7.1562659851
 21
6.9983767499
 31
0.0
  0
LINE
  5
324
330
1F
100
AcDbEntity
  8
0
  6
Continuous
 62
     7
370
    30
100
AcDbLine
 10
7.0152659473
 20
6.9983767499
 30
0.0
 11
7.1243255808
 21
6.9983767499
 31
0.0
  0
LINE
  5
325
330
1F
100
AcDbEntity
  8
0
  6
Continuous
 62
     7
370
    30
100
AcDbLine
 10
7.1807659288
 20
6.9569664816
 30
0.0
 11
6.9907660037
 21
6.9569664816
 31
0.0
  0
LINE
  5
326
330
1F
100
AcDbEntity
  8
0
  6
Continuous
 62
     7
370
    30
100
AcDbLine
 10
7.1243255808
 20
6.9428212317
 30
0.0
 11
7.1562659851
 21
6.9428212317
 31
0.0
  0
LINE
  5
327
330
1F
100
AcDbEntity
  8
0
  6
Continuous
 62
     7
370
    30
100
AcDbLine
 10
7.0152659473
 20
6.9428212317
 30
0.0
 11
7.1243255808
 21
6.9428212317
 31
0.0
  0
LINE
  5
328
330
1F
100
AcDbEntity
  8
0
  6
Continuous
 62
     7
370
    30
100
AcDbLine
 10
7.1562659851
 20
6.9711114382
 30
0.0
 11
7.0152659473
 21
6.9711114382
 31
0.0
  0
LINE
  5
329
330
1F
100
AcDbEntity
  8
0
  6
Continuous
 62
     7
370
    30
100
AcDbLine
 10
7.1807659288
 20
6.9014109634
 30
0.0
 11
6.9907660037
 21
6.9014109634
 31
0.0
  0
LINE
  5
32A
330
1F
100
AcDbEntity
  8
0
  6
Continuous
 62
     7
370
    30
100
AcDbLine
 10
7.1243255808
 20
6.8872657135
 30
0.0
 11
7.1562659851
 21
6.8872657135
 31
0.0
  0
LINE
  5
32B
330
1F
100
AcDbEntity
  8
0
  6
Continuous
 62
     7
370
    30
100
AcDbLine
 10
7.0152659473
 20
6.8872657135
 30
0.0
 11
7.1243255808
 21
6.8872657135
 31
0.0
  0
LINE
  5
32C
330
1F
100
AcDbEntity
  8
0
  6
Continuous
 62
     7
370
    30
100
AcDbLine
 10
7.1562659851
 20
6.91555592
 30
0.0
 11
7.0152659473
 21
6.91555592
 31
0.0
  0
LINE
  5
32D
330
1F
100
AcDbEntity
  8
0
  6
Continuous
 62
     7
370
    30
100
AcDbLine
 10
7.1562659851
 20
6.8600004018
 30
0.0
 11
7.0152659473
 21
6.8600004018
 31
0.0
  0
LINE
  5
32E
330
1F
100
AcDbEntity
  8
0
  6
Continuous
 62
     7
370
    30
100
AcDbLine
 10
7.1807659288
 20
6.8458551519
 30
0.0
 11
6.9907660037
 21
6.8458551519
 31
0.0
  0
LINE
  5
32F
330
1F
100
AcDbEntity
  8
0
  6
Continuous
 62
     7
370
    30
100
AcDbLine
 10
7.1243255808
 20
6.8317101953
 30
0.0
 11
7.1562659851
 21
6.8317101953
 31
0.0
  0
LINE
  5
330
330
1F
100
AcDbEntity
  8
0
  6
Continuous
 62
     7
370
    30
100
AcDbLine
 10
7.0152659473
 20
6.8317101953
 30
0.0
 11
7.1243255808
 21
6.8317101953
 31
0.0
  0
LINE
  5
331
330
1F
100
AcDbEntity
  8
0
  6
Continuous
 62
     7
370
    30
100
AcDbLine
 10
7.1807659288
 20
6.7902996337
 30
0.0
 11
6.9907660037
 21
6.7902996337
 31
0.0
  0
LINE
  5
332
330
1F
100
AcDbEntity
  8
0
  6
Continuous
 62
     7
370
    30
100
AcDbLine
 10
7.1243255808
 20
6.7761546771
 30
0.0
 11
7.1562659851
 21
6.7761546771
 31
0.0
  0
LINE
  5
333
330
1F
100
AcDbEntity
  8
0
  6
Continuous
 62
     7
370
    30
100
AcDbLine
 10
7.0152659473
 20
6.7761546771
 30
0.0
 11
7.1243255808
 21
6.7761546771
 31
0.0
  0
LINE
  5
334
330
1F
100
AcDbEntity
  8
0
  6
Continuous
 62
     7
370
    30
100
AcDbLine
 10
7.1562659851
 20
6.8044448836
 30
0.0
 11
7.0152659473
 21
6.8044448836
 31
0.0
  0
LINE
  5
335
330
1F
100
AcDbEntity
  8
0
  6
Continuous
 62
     7
370
    30
100
AcDbLine
 10
7.1807659288
 20
6.7347441154
 30
0.0
 11
6.9907660037
 21
6.7347441154
 31
0.0
  0
LINE
  5
336
330
1F
100
AcDbEntity
  8
0
  6
Continuous
 62
     7
370
    30
100
AcDbLine
 10
7.1243255808
 20
6.7205991589
 30
0.0
 11
7.1562659851
 21
6.7205991589
 31
0.0
  0
LINE
  5
337
330
1F
100
AcDbEntity
  8
0
  6
Continuous
 62
     7
370
    30
100
AcDbLine
 10
7.0152659473
 20
6.7205991589
 30
0.0
 11
7.1243255808
 21
6.7205991589
 31
0.0
  0
LINE
  5
338
330
1F
100
AcDbEntity
  8
0
  6
Continuous
 62
     7
370
    30
100
AcDbLine
 10
7.1562659851
 20
6.7488893654
 30
0.0
 11
7.0152659473
 21
6.7488893654
 31
0.0
  0
LINE
  5
339
330
1F
100
AcDbEntity
  8
0
  6
Continuous
 62
     7
370
    30
100
AcDbLine
 10
7.1562659851
 20
6.6933335538
 30
0.0
 11
7.0152659473
 21
6.6933335538
 31
0.0
  0
LINE
  5
33A
330
1F
100
AcDbEntity
  8
0
  6
Continuous
 62
     7
370
    30
100
AcDbLine
 10
7.1807659288
 20
6.6791885972
 30
0.0
 11
6.9907660037
 21
6.6791885972
 31
0.0
  0
LINE
  5
33B
330
1F
100
AcDbEntity
  8
0
  6
Continuous
 62
     7
370
    30
100
AcDbLine
 10
7.1243255808
 20
6.6650436406
 30
0.0
 11
7.1562659851
 21
6.6650436406
 31
0.0
  0
LINE
  5
33C
330
1F
100
AcDbEntity
  8
0
  6
Continuous
 62
     7
370
    30
100
AcDbLine
 10
7.0152659473
 20
6.6650436406
 30
0.0
 11
7.1243255808
 21
6.6650436406
 31
0.0
  0
LINE
  5
33D
330
1F
100
AcDbEntity
  8
0
  6
Continuous
 62
     7
370
    30
100
AcDbLine
 10
7.1562659851
 20
6.6377780356
 30
0.0
 11
7.0152659473
 21
6.6377780356
 31
0.0
  0
LINE
  5
33E
330
1F
100
AcDbEntity
  8
0
  6
Continuous
 62
     7
370
    30
100
AcDbLine
 10
7.1807659288
 20
6.623633079
 30
0.0
 11
6.9907660037
 21
6.623633079
 31
0.0
  0
LINE
  5
33F
330
1F
100
AcDbEntity
  8
0
  6
Continuous
 62
     7
370
    30
100
AcDbLine
 10
7.1243255808
 20
6.6094881224
 30
0.0
 11
7.1562659851
 21
6.6094881224
 31
0.0
  0
LINE
  5
340
330
1F
100
AcDbEntity
  8
0
  6
Continuous
 62
     7
370
    30
100
AcDbLine
 10
7.0152659473
 20
6.6094881224
 30
0.0
 11
7.1243255808
 21
6.6094881224
 31
0.0
  0
LINE
  5
341
330
1F
100
AcDbEntity
  8
0
  6
Continuous
 62
     7
370
    30
100
AcDbLine
 10
7.1807659288
 20
6.5680775608
 30
0.0
 11
6.9907660037
 21
6.5680775608
 31
0.0
  0
LINE
  5
342
330
1F
100
AcDbEntity
  8
0
  6
Continuous
 62
     7
370
    30
100
AcDbLine
 10
7.1243255808
 20
6.5539323109
 30
0.0
 11
7.1562659851
 21
6.5539323109
 31
0.0
  0
LINE
  5
343
330
1F
100
AcDbEntity
  8
0
  6
Continuous
 62
     7
370
    30
100
AcDbLine
 10
7.0152659473
 20
6.5539323109
 30
0.0
 11
7.1243255808
 21
6.5539323109
 31
0.0
  0
LINE
  5
344
330
1F
100
AcDbEntity
  8
0
  6
Continuous
 62
     7
370
    30
100
AcDbLine
 10
7.1562659851
 20
6.5822225174
 30
0.0
 11
7.0152659473
 21
6.5822225174
 31
0.0
  0
LINE
  5
345
330
1F
100
AcDbEntity
  8
0
  6
Continuous
 62
     7
370
    30
100
AcDbLine
 10
7.1562659851
 20
6.5266669992
 30
0.0
 11
7.0152659473
 21
6.5266669992
 31
0.0
  0
LINE
  5
346
330
1F
100
AcDbEntity
  8
0
  6
Continuous
 62
     7
370
    30
100
AcDbLine
 10
7.1807659288
 20
6.5125220426
 30
0.0
 11
6.9907660037
 21
6.5125220426
 31
0.0
  0
LINE
  5
347
330
1F
100
AcDbEntity
  8
0
  6
Continuous
 62
     7
370
    30
100
AcDbLine
 10
7.1243255808
 20
6.4983767926
 30
0.0
 11
7.1562659851
 21
6.4983767926
 31
0.0
  0
LINE
  5
348
330
1F
100
AcDbEntity
  8
0
  6
Continuous
 62
     7
370
    30
100
AcDbLine
 10
7.0152659473
 20
6.4983767926
 30
0.0
 11
7.1243255808
 21
6.4983767926
 31
0.0
  0
LINE
  5
349
330
1F
100
AcDbEntity
  8
0
  6
Continuous
 62
     7
370
    30
100
AcDbLine
 10
7.1562659851
 20
6.471111481
 30
0.0
 11
7.0152659473
 21
6.471111481
 31
0.0
  0
LINE
  5
34A
330
1F
100
AcDbEntity
  8
0
  6
Continuous
 62
     7
370
    30
100
AcDbLine
 10
7.1807659288
 20
6.4569665244
 30
0.0
 11
6.9907660037
 21
6.4569665244
 31
0.0
  0
LINE
  5
34B
330
1F
100
AcDbEntity
  8
0
  6
Continuous
 62
     7
370
    30
100
AcDbLine
 10
7.1243255808
 20
6.4428212744
 30
0.0
 11
7.1562659851
 21
6.4428212744
 31
0.0
  0
LINE
  5
34C
330
1F
100
AcDbEntity
  8
0
  6
Continuous
 62
     7
370
    30
100
AcDbLine
 10
7.0152659473
 20
6.4428212744
 30
0.0
 11
7.1243255808
 21
6.4428212744
 31
0.0
  0
LINE
  5
34D
330
1F
100
AcDbEntity
  8
0
  6
Continuous
 62
     7
370
    30
100
AcDbLine
 10
7.1562659851
 20
6.4155559627
 30
0.0
 11
7.0152659473
 21
6.4155559627
 31
0.0
  0
LINE
  5
34E
330
1F
100
AcDbEntity
  8
0
  6
Continuous
 62
     7
370
    30
100
AcDbLine
 10
7.1807659288
 20
6.4014107128
 30
0.0
 11
6.9907660037
 21
6.4014107128
 31
0.0
  0
LINE
  5
34F
330
1F
100
AcDbEntity
  8
0
  6
Continuous
 62
     7
370
    30
100
AcDbLine
 10
7.1243255808
 20
6.3872657562
 30
0.0
 11
7.1562659851
 21
6.3872657562
 31
0.0
  0
LINE
  5
350
330
1F
100
AcDbEntity
  8
0
  6
Continuous
 62
     7
370
    30
100
AcDbLine
 10
7.0152659473
 20
6.3872657562
 30
0.0
 11
7.1243255808
 21
6.3872657562
 31
0.0
  0
LINE
  5
351
330
1F
100
AcDbEntity
  8
0
  6
Continuous
 62
     7
370
    30
100
AcDbLine
 10
7.1562659851
 20
6.3600004445
 30
0.0
 11
7.0152659473
 21
6.3600004445
 31
0.0
  0
LINE
  5
352
330
1F
100
AcDbEntity
  8
0
  6
Continuous
 62
     7
370
    30
100
AcDbLine
 10
7.1807659288
 20
6.3458551946
 30
0.0
 11
6.9907660037
 21
6.3458551946
 31
0.0
  0
LINE
  5
353
330
1F
100
AcDbEntity
  8
0
  6
Continuous
 62
     7
370
    30
100
AcDbLine
 10
7.1243255808
 20
6.331710238
 30
0.0
 11
7.1562659851
 21
6.331710238
 31
0.0
  0
LINE
  5
354
330
1F
100
AcDbEntity
  8
0
  6
Continuous
 62
     7
370
    30
100
AcDbLine
 10
7.0152659473
 20
6.331710238
 30
0.0
 11
7.1243255808
 21
6.331710238
 31
0.0
  0
LINE
  5
355
330
1F
100
AcDbEntity
  8
0
  6
Continuous
 62
     7
370
    30
100
AcDbLine
 10
7.1562659851
 20
6.3044449263
 30
0.0
 11
7.0152659473
 21
6.3044449263
 31
0.0
  0
LINE
  5
356
330
1F
100
AcDbEntity
  8
0
  6
Continuous
 62
     7
370
    30
100
AcDbLine
 10
7.1807659288
 20
6.2902996764
 30
0.0
 11
6.9907660037
 21
6.2902996764
 31
0.0
  0
LINE
  5
357
330
1F
100
AcDbEntity
  8
0
  6
Continuous
 62
     7
370
    30
100
AcDbLine
 10
7.1243255808
 20
6.2761547198
 30
0.0
 11
7.1562659851
 21
6.2761547198
 31
0.0
  0
LINE
  5
358
330
1F
100
AcDbEntity
  8
0
  6
Continuous
 62
     7
370
    30
100
AcDbLine
 10
7.0152659473
 20
6.2761547198
 30
0.0
 11
7.1243255808
 21
6.2761547198
 31
0.0
  0
LINE
  5
359
330
1F
100
AcDbEntity
  8
0
  6
Continuous
 62
     7
370
    30
100
AcDbLine
 10
7.1562659851
 20
6.2488891148
 30
0.0
 11
7.0152659473
 21
6.2488891148
 31
0.0
  0
LINE
  5
35A
330
1F
100
AcDbEntity
  8
0
  6
Continuous
 62
     7
370
    30
100
AcDbLine
 10
7.1807659288
 20
6.2347441582
 30
0.0
 11
6.9907660037
 21
6.2347441582
 31
0.0
  0
LINE
  5
35B
330
1F
100
AcDbEntity
  8
0
  6
Continuous
 62
     7
370
    30
100
AcDbLine
 10
7.1243255808
 20
6.2205992016
 30
0.0
 11
7.1562659851
 21
6.2205992016
 31
0.0
  0
LINE
  5
35C
330
1F
100
AcDbEntity
  8
0
  6
Continuous
 62
     7
370
    30
100
AcDbLine
 10
7.0152659473
 20
6.2205992016
 30
0.0
 11
7.1243255808
 21
6.2205992016
 31
0.0
  0
LINE
  5
35D
330
1F
100
AcDbEntity
  8
0
  6
Continuous
 62
     7
370
    30
100
AcDbLine
 10
7.1562659851
 20
6.1933335965
 30
0.0
 11
7.0152659473
 21
6.1933335965
 31
0.0
  0
LINE
  5
35E
330
1F
100
AcDbEntity
  8
0
  6
Continuous
 62
     7
370
    30
100
AcDbLine
 10
7.1807659288
 20
6.1791886399
 30
0.0
 11
6.9907660037
 21
6.1791886399
 31
0.0
  0
LINE
  5
35F
330
1F
100
AcDbEntity
  8
0
  6
Continuous
 62
     7
370
    30
100
AcDbLine
 10
7.1243255808
 20
6.1650436833
 30
0.0
 11
7.1562659851
 21
6.1650436833
 31
0.0
  0
LINE
  5
360
330
1F
100
AcDbEntity
  8
0
  6
Continuous
 62
     7
370
    30
100
AcDbLine
 10
7.0152659473
 20
6.1650436833
 30
0.0
 11
7.1243255808
 21
6.1650436833
 31
0.0
  0
LINE
  5
361
330
1F
100
AcDbEntity
  8
0
  6
Continuous
 62
     7
370
    30
100
AcDbLine
 10
7.1562659851
 20
6.1377780783
 30
0.0
 11
7.0152659473
 21
6.1377780783
 31
0.0
  0
LINE
  5
362
330
1F
100
AcDbEntity
  8
0
  6
Continuous
 62
     7
370
    30
100
AcDbLine
 10
7.1807659288
 20
6.1236331217
 30
0.0
 11
6.9907660037
 21
6.1236331217
 31
0.0
  0
LINE
  5
363
330
1F
100
AcDbEntity
  8
0
  6
Continuous
 62
     7
370
    30
100
AcDbLine
 10
7.1243255808
 20
6.1094878718
 30
0.0
 11
7.1562659851
 21
6.1094878718
 31
0.0
  0
LINE
  5
364
330
1F
100
AcDbEntity
  8
0
  6
Continuous
 62
     7
370
    30
100
AcDbLine
 10
7.0152659473
 20
6.1094878718
 30
0.0
 11
7.1243255808
 21
6.1094878718
 31
0.0
  0
LINE
  5
365
330
1F
100
AcDbEntity
  8
0
  6
Continuous
 62
     7
370
    30
100
AcDbLine
 10
7.1807659288
 20
6.0680776035
 30
0.0
 11
6.9907660037
 21
6.0680776035
 31
0.0
  0
LINE
  5
366
330
1F
100
AcDbEntity
  8
0
  6
Continuous
 62
     7
370
    30
100
AcDbLine
 10
7.1243255808
 20
6.0539323536
 30
0.0
 11
7.1562659851
 21
6.0539323536
 31
0.0
  0
LINE
  5
367
330
1F
100
AcDbEntity
  8
0
  6
Continuous
 62
     7
370
    30
100
AcDbLine
 10
7.0152659473
 20
6.0539323536
 30
0.0
 11
7.1243255808
 21
6.0539323536
 31
0.0
  0
LINE
  5
368
330
1F
100
AcDbEntity
  8
0
  6
Continuous
 62
     7
370
    30
100
AcDbLine
 10
7.1562659851
 20
6.0822225601
 30
0.0
 11
7.0152659473
 21
6.0822225601
 31
0.0
  0
LINE
  5
369
330
1F
100
AcDbEntity
  8
0
  6
Continuous
 62
     7
370
    30
100
AcDbLine
 10
7.1807659288
 20
6.0125220853
 30
0.0
 11
6.9907660037
 21
6.0125220853
 31
0.0
  0
LINE
  5
36A
330
1F
100
AcDbEntity
  8
0
  6
Continuous
 62
     7
370
    30
100
AcDbLine
 10
7.1243255808
 20
5.9983768354
 30
0.0
 11
7.1562659851
 21
5.9983768354
 31
0.0
  0
LINE
  5
36B
330
1F
100
AcDbEntity
  8
0
  6
Continuous
 62
     7
370
    30
100
AcDbLine
 10
7.0152659473
 20
5.9983768354
 30
0.0
 11
7.1243255808
 21
5.9983768354
 31
0.0
  0
LINE
  5
36C
330
1F
100
AcDbEntity
  8
0
  6
Continuous
 62
     7
370
    30
100
AcDbLine
 10
7.1562659851
 20
6.0266670419
 30
0.0
 11
7.0152659473
 21
6.0266670419
 31
0.0
  0
LINE
  5
36D
330
1F
100
AcDbEntity
  8
0
  6
Continuous
 62
     7
370
    30
100
AcDbLine
 10
7.1807659288
 20
5.9569662737
 30
0.0
 11
6.9907660037
 21
5.9569662737
 31
0.0
  0
LINE
  5
36E
330
1F
100
AcDbEntity
  8
0
  6
Continuous
 62
     7
370
    30
100
AcDbLine
 10
7.1243255808
 20
5.9428213171
 30
0.0
 11
7.1562659851
 21
5.9428213171
 31
0.0
  0
LINE
  5
36F
330
1F
100
AcDbEntity
  8
0
  6
Continuous
 62
     7
370
    30
100
AcDbLine
 10
7.0152659473
 20
5.9428213171
 30
0.0
 11
7.1243255808
 21
5.9428213171
 31
0.0
  0
LINE
  5
370
330
1F
100
AcDbEntity
  8
0
  6
Continuous
 62
     7
370
    30
100
AcDbLine
 10
7.1562659851
 20
5.9711115237
 30
0.0
 11
7.0152659473
 21
5.9711115237
 31
0.0
  0
LINE
  5
371
330
1F
100
AcDbEntity
  8
0
  6
Continuous
 62
     7
370
    30
100
AcDbLine
 10
7.1807659288
 20
5.9014107555
 30
0.0
 11
6.9907660037
 21
5.9014107555
 31
0.0
  0
LINE
  5
372
330
1F
100
AcDbEntity
  8
0
  6
Continuous
 62
     7
370
    30
100
AcDbLine
 10
7.1243255808
 20
5.8872657989
 30
0.0
 11
7.1562659851
 21
5.8872657989
 31
0.0
  0
LINE
  5
373
330
1F
100
AcDbEntity
  8
0
  6
Continuous
 62
     7
370
    30
100
AcDbLine
 10
7.0152659473
 20
5.8872657989
 30
0.0
 11
7.1243255808
 21
5.8872657989
 31
0.0
  0
LINE
  5
374
330
1F
100
AcDbEntity
  8
0
  6
Continuous
 62
     7
370
    30
100
AcDbLine
 10
7.1562659851
 20
5.9155560054
 30
0.0
 11
7.0152659473
 21
5.9155560054
 31
0.0
  0
LINE
  5
375
330
1F
100
AcDbEntity
  8
0
  6
Continuous
 62
     7
370
    30
100
AcDbLine
 10
7.1562659851
 20
5.8600004872
 30
0.0
 11
7.0152659473
 21
5.8600004872
 31
0.0
  0
LINE
  5
376
330
1F
100
AcDbEntity
  8
0
  6
Continuous
 62
     7
370
    30
100
AcDbLine
 10
7.1807659288
 20
5.8458552373
 30
0.0
 11
6.9907660037
 21
5.8458552373
 31
0.0
  0
LINE
  5
377
330
1F
100
AcDbEntity
  8
0
  6
Continuous
 62
     7
370
    30
100
AcDbLine
 10
7.1243255808
 20
5.8317102807
 30
0.0
 11
7.1562659851
 21
5.8317102807
 31
0.0
  0
LINE
  5
378
330
1F
100
AcDbEntity
  8
0
  6
Continuous
 62
     7
370
    30
100
AcDbLine
 10
7.0152659473
 20
5.8317102807
 30
0.0
 11
7.1243255808
 21
5.8317102807
 31
0.0
  0
LINE
  5
379
330
1F
100
AcDbEntity
  8
0
  6
Continuous
 62
     7
370
    30
100
AcDbLine
 10
7.1562659851
 20
5.8044446757
 30
0.0
 11
7.0152659473
 21
5.8044446757
 31
0.0
  0
LINE
  5
37A
330
1F
100
AcDbEntity
  8
0
  6
Continuous
 62
     7
370
    30
100
AcDbLine
 10
7.1807659288
 20
5.7902997191
 30
0.0
 11
6.9907660037
 21
5.7902997191
 31
0.0
  0
LINE
  5
37B
330
1F
100
AcDbEntity
  8
0
  6
Continuous
 62
     7
370
    30
100
AcDbLine
 10
7.1562659851
 20
5.7488891575
 30
0.0
 11
7.0152659473
 21
5.7488891575
 31
0.0
  0
LINE
  5
37C
330
1F
100
AcDbEntity
  8
0
  6
Continuous
 62
     7
370
    30
100
AcDbLine
 10
7.1807659288
 20
5.7347442009
 30
0.0
 11
6.9907660037
 21
5.7347442009
 31
0.0
  0
LINE
  5
37D
330
1F
100
AcDbEntity
  8
0
  6
Continuous
 62
     7
370
    30
100
AcDbLine
 10
7.1243255808
 20
5.7761547625
 30
0.0
 11
7.1562659851
 21
5.7761547625
 31
0.0
  0
LINE
  5
37E
330
1F
100
AcDbEntity
  8
0
  6
Continuous
 62
     7
370
    30
100
AcDbLine
 10
7.0152659473
 20
5.7761547625
 30
0.0
 11
7.1243255808
 21
5.7761547625
 31
0.0
  0
LINE
  5
37F
330
1F
100
AcDbEntity
  8
0
  6
Continuous
 62
     7
370
    30
100
AcDbLine
 10
7.1243255808
 20
5.7205989509
 30
0.0
 11
7.1562659851
 21
5.7205989509
 31
0.0
  0
LINE
  5
380
330
1F
100
AcDbEntity
  8
0
  6
Continuous
 62
     7
370
    30
100
AcDbLine
 10
7.0152659473
 20
5.7205989509
 30
0.0
 11
7.1243255808
 21
5.7205989509
 31
0.0
  0
LINE
  5
381
330
1F
100
AcDbEntity
  8
0
  6
Continuous
 62
     7
370
    30
100
AcDbLine
 10
7.1807659288
 20
5.6791886826
 30
0.0
 11
6.9907660037
 21
5.6791886826
 31
0.0
  0
LINE
  5
382
330
1F
100
AcDbEntity
  8
0
  6
Continuous
 62
     7
370
    30
100
AcDbLine
 10
7.1243255808
 20
5.6650434327
 30
0.0
 11
7.1562659851
 21
5.6650434327
 31
0.0
  0
LINE
  5
383
330
1F
100
AcDbEntity
  8
0
  6
Continuous
 62
     7
370
    30
100
AcDbLine
 10
7.0152659473
 20
5.6650434327
 30
0.0
 11
7.1243255808
 21
5.6650434327
 31
0.0
  0
LINE
  5
384
330
1F
100
AcDbEntity
  8
0
  6
Continuous
 62
     7
370
    30
100
AcDbLine
 10
7.1562659851
 20
5.6933336392
 30
0.0
 11
7.0152659473
 21
5.6933336392
 31
0.0
  0
LINE
  5
385
330
1F
100
AcDbEntity
  8
0
  6
Continuous
 62
     7
370
    30
100
AcDbLine
 10
7.1562659851
 20
5.637778121
 30
0.0
 11
7.0152659473
 21
5.637778121
 31
0.0
  0
LINE
  5
386
330
1F
100
AcDbEntity
  8
0
  6
Continuous
 62
     7
370
    30
100
AcDbLine
 10
7.1807659288
 20
5.6236331644
 30
0.0
 11
6.9907660037
 21
5.6236331644
 31
0.0
  0
LINE
  5
387
330
1F
100
AcDbEntity
  8
0
  6
Continuous
 62
     7
370
    30
100
AcDbLine
 10
7.1243255808
 20
5.6094879145
 30
0.0
 11
7.1562659851
 21
5.6094879145
 31
0.0
  0
LINE
  5
388
330
1F
100
AcDbEntity
  8
0
  6
Continuous
 62
     7
370
    30
100
AcDbLine
 10
7.0152659473
 20
5.6094879145
 30
0.0
 11
7.1243255808
 21
5.6094879145
 31
0.0
  0
LINE
  5
389
330
1F
100
AcDbEntity
  8
0
  6
Continuous
 62
     7
370
    30
100
AcDbLine
 10
7.1562659851
 20
5.5822226028
 30
0.0
 11
7.0152659473
 21
5.5822226028
 31
0.0
  0
LINE
  5
38A
330
1F
100
AcDbEntity
  8
0
  6
Continuous
 62
     7
370
    30
100
AcDbLine
 10
7.1807659288
 20
5.5680774995
 30
0.0
 11
6.9907660037
 21
5.5680774995
 31
0.0
  0
LINE
  5
38B
330
1F
100
AcDbEntity
  8
0
  6
Continuous
 62
     7
370
    30
100
AcDbLine
 10
7.1243255808
 20
5.5539323963
 30
0.0
 11
7.1562659851
 21
5.5539323963
 31
0.0
  0
LINE
  5
38C
330
1F
100
AcDbEntity
  8
0
  6
Continuous
 62
     7
370
    30
100
AcDbLine
 10
7.0152659473
 20
5.5539323963
 30
0.0
 11
7.1243255808
 21
5.5539323963
 31
0.0
  0
LINE
  5
38D
330
1F
100
AcDbEntity
  8
0
  6
Continuous
 62
     7
370
    30
100
AcDbLine
 10
7.1807659288
 20
5.5125219813
 30
0.0
 11
6.9907660037
 21
5.5125219813
 31
0.0
  0
LINE
  5
38E
330
1F
100
AcDbEntity
  8
0
  6
Continuous
 62
     7
370
    30
100
AcDbLine
 10
7.1243255808
 20
5.4983768781
 30
0.0
 11
7.1562659851
 21
5.4983768781
 31
0.0
  0
LINE
  5
38F
330
1F
100
AcDbEntity
  8
0
  6
Continuous
 62
     7
370
    30
100
AcDbLine
 10
7.0152659473
 20
5.4983768781
 30
0.0
 11
7.1243255808
 21
5.4983768781
 31
0.0
  0
LINE
  5
390
330
1F
100
AcDbEntity
  8
0
  6
Continuous
 62
     7
370
    30
100
AcDbLine
 10
7.1562659851
 20
5.5266670846
 30
0.0
 11
7.0152659473
 21
5.5266670846
 31
0.0
  0
LINE
  5
391
330
1F
100
AcDbEntity
  8
0
  6
Continuous
 62
     7
370
    30
100
AcDbLine
 10
7.1562659851
 20
5.4711114197
 30
0.0
 11
7.0152659473
 21
5.4711114197
 31
0.0
  0
LINE
  5
392
330
1F
100
AcDbEntity
  8
0
  6
Continuous
 62
     7
370
    30
100
AcDbLine
 10
7.1807659288
 20
5.4569664631
 30
0.0
 11
6.9907660037
 21
5.4569664631
 31
0.0
  0
LINE
  5
393
330
1F
100
AcDbEntity
  8
0
  6
Continuous
 62
     7
370
    30
100
AcDbLine
 10
7.1243255808
 20
5.4428213598
 30
0.0
 11
7.1562659851
 21
5.4428213598
 31
0.0
  0
LINE
  5
394
330
1F
100
AcDbEntity
  8
0
  6
Continuous
 62
     7
370
    30
100
AcDbLine
 10
7.0152659473
 20
5.4428213598
 30
0.0
 11
7.1243255808
 21
5.4428213598
 31
0.0
  0
LINE
  5
395
330
1F
100
AcDbEntity
  8
0
  6
Continuous
 62
     7
370
    30
100
AcDbLine
 10
7.1562659851
 20
5.4155559015
 30
0.0
 11
7.0152659473
 21
5.4155559015
 31
0.0
  0
LINE
  5
396
330
1F
100
AcDbEntity
  8
0
  6
Continuous
 62
     7
370
    30
100
AcDbLine
 10
7.1807659288
 20
5.4014107982
 30
0.0
 11
6.9907660037
 21
5.4014107982
 31
0.0
  0
LINE
  5
397
330
1F
100
AcDbEntity
  8
0
  6
Continuous
 62
     7
370
    30
100
AcDbLine
 10
7.1243255808
 20
5.387265695
 30
0.0
 11
7.1562659851
 21
5.387265695
 31
0.0
  0
LINE
  5
398
330
1F
100
AcDbEntity
  8
0
  6
Continuous
 62
     7
370
    30
100
AcDbLine
 10
7.0152659473
 20
5.387265695
 30
0.0
 11
7.1243255808
 21
5.387265695
 31
0.0
  0
LINE
  5
399
330
1F
100
AcDbEntity
  8
0
  6
Continuous
 62
     7
370
    30
100
AcDbLine
 10
7.1562659851
 20
5.3600003833
 30
0.0
 11
7.0152659473
 21
5.3600003833
 31
0.0
  0
LINE
  5
39A
330
1F
100
AcDbEntity
  8
0
  6
Continuous
 62
     7
370
    30
100
AcDbLine
 10
7.1807659288
 20
5.34585528
 30
0.0
 11
6.9907660037
 21
5.34585528
 31
0.0
  0
LINE
  5
39B
330
1F
100
AcDbEntity
  8
0
  6
Continuous
 62
     7
370
    30
100
AcDbLine
 10
7.1243255808
 20
5.3317101767
 30
0.0
 11
7.1562659851
 21
5.3317101767
 31
0.0
  0
LINE
  5
39C
330
1F
100
AcDbEntity
  8
0
  6
Continuous
 62
     7
370
    30
100
AcDbLine
 10
7.0152659473
 20
5.3317101767
 30
0.0
 11
7.1243255808
 21
5.3317101767
 31
0.0
  0
LINE
  5
39D
330
1F
100
AcDbEntity
  8
0
  6
Continuous
 62
     7
370
    30
100
AcDbLine
 10
7.1807659288
 20
5.2902997618
 30
0.0
 11
6.9907660037
 21
5.2902997618
 31
0.0
  0
LINE
  5
39E
330
1F
100
AcDbEntity
  8
0
  6
Continuous
 62
     7
370
    30
100
AcDbLine
 10
7.1243255808
 20
5.2761546585
 30
0.0
 11
7.1562659851
 21
5.2761546585
 31
0.0
  0
LINE
  5
39F
330
1F
100
AcDbEntity
  8
0
  6
Continuous
 62
     7
370
    30
100
AcDbLine
 10
7.0152659473
 20
5.2761546585
 30
0.0
 11
7.1243255808
 21
5.2761546585
 31
0.0
  0
LINE
  5
3A0
330
1F
100
AcDbEntity
  8
0
  6
Continuous
 62
     7
370
    30
100
AcDbLine
 10
7.1562659851
 20
5.3044448651
 30
0.0
 11
7.0152659473
 21
5.3044448651
 31
0.0
  0
LINE
  5
3A1
330
1F
100
AcDbEntity
  8
0
  6
Continuous
 62
     7
370
    30
100
AcDbLine
 10
7.1562659851
 20
5.2488892002
 30
0.0
 11
7.0152659473
 21
5.2488892002
 31
0.0
  0
LINE
  5
3A2
330
1F
100
AcDbEntity
  8
0
  6
Continuous
 62
     7
370
    30
100
AcDbLine
 10
7.1807659288
 20
5.2347442436
 30
0.0
 11
6.9907660037
 21
5.2347442436
 31
0.0
  0
LINE
  5
3A3
330
1F
100
AcDbEntity
  8
0
  6
Continuous
 62
     7
370
    30
100
AcDbLine
 10
7.1243255808
 20
5.2205991403
 30
0.0
 11
7.1562659851
 21
5.2205991403
 31
0.0
  0
LINE
  5
3A4
330
1F
100
AcDbEntity
  8
0
  6
Continuous
 62
     7
370
    30
100
AcDbLine
 10
7.0152659473
 20
5.2205991403
 30
0.0
 11
7.1243255808
 21
5.2205991403
 31
0.0
  0
LINE
  5
3A5
330
1F
100
AcDbEntity
  8
0
  6
Continuous
 62
     7
370
    30
100
AcDbLine
 10
7.1562659851
 20
5.193333682
 30
0.0
 11
7.0152659473
 21
5.193333682
 31
0.0
  0
LINE
  5
3A6
330
1F
100
AcDbEntity
  8
0
  6
Continuous
 62
     7
370
    30
100
AcDbLine
 10
7.1807659288
 20
5.1791885787
 30
0.0
 11
6.9907660037
 21
5.1791885787
 31
0.0
  0
LINE
  5
3A7
330
1F
100
AcDbEntity
  8
0
  6
Continuous
 62
     7
370
    30
100
AcDbLine
 10
7.1243255808
 20
5.1650434754
 30
0.0
 11
7.1562659851
 21
5.1650434754
 31
0.0
  0
LINE
  5
3A8
330
1F
100
AcDbEntity
  8
0
  6
Continuous
 62
     7
370
    30
100
AcDbLine
 10
7.0152659473
 20
5.1650434754
 30
0.0
 11
7.1243255808
 21
5.1650434754
 31
0.0
  0
LINE
  5
3A9
330
1F
100
AcDbEntity
  8
0
  6
Continuous
 62
     7
370
    30
100
AcDbLine
 10
7.1562659851
 20
5.1377781637
 30
0.0
 11
7.0152659473
 21
5.1377781637
 31
0.0
  0
LINE
  5
3AA
330
1F
100
AcDbEntity
  8
0
  6
Continuous
 62
     7
370
    30
100
AcDbLine
 10
7.1807659288
 20
5.1236330605
 30
0.0
 11
6.9907660037
 21
5.1236330605
 31
0.0
  0
LINE
  5
3AB
330
1F
100
AcDbEntity
  8
0
  6
Continuous
 62
     7
370
    30
100
AcDbLine
 10
7.1243255808
 20
5.1094879572
 30
0.0
 11
7.1562659851
 21
5.1094879572
 31
0.0
  0
LINE
  5
3AC
330
1F
100
AcDbEntity
  8
0
  6
Continuous
 62
     7
370
    30
100
AcDbLine
 10
7.0152659473
 20
5.1094879572
 30
0.0
 11
7.1243255808
 21
5.1094879572
 31
0.0
  0
LINE
  5
3AD
330
1F
100
AcDbEntity
  8
0
  6
Continuous
 62
     7
370
    30
100
AcDbLine
 10
7.1562659851
 20
5.0822226455
 30
0.0
 11
7.0152659473
 21
5.0822226455
 31
0.0
  0
LINE
  5
3AE
330
1F
100
AcDbEntity
  8
0
  6
Continuous
 62
     7
370
    30
100
AcDbLine
 10
7.1807659288
 20
5.0680775423
 30
0.0
 11
6.9907660037
 21
5.0680775423
 31
0.0
  0
LINE
  5
3AF
330
1F
100
AcDbEntity
  8
0
  6
Continuous
 62
     7
370
    30
100
AcDbLine
 10
7.1243255808
 20
5.053932439
 30
0.0
 11
7.1562659851
 21
5.053932439
 31
0.0
  0
LINE
  5
3B0
330
1F
100
AcDbEntity
  8
0
  6
Continuous
 62
     7
370
    30
100
AcDbLine
 10
7.0152659473
 20
5.053932439
 30
0.0
 11
7.1243255808
 21
5.053932439
 31
0.0
  0
LINE
  5
3B1
330
1F
100
AcDbEntity
  8
0
  6
Continuous
 62
     7
370
    30
100
AcDbLine
 10
7.1562659851
 20
5.0266669806
 30
0.0
 11
7.0152659473
 21
5.0266669806
 31
0.0
  0
LINE
  5
3B2
330
1F
100
AcDbEntity
  8
0
  6
Continuous
 62
     7
370
    30
100
AcDbLine
 10
7.1562659851
 20
7.2867643785
 30
0.0
 11
7.0152659473
 21
7.2867643785
 31
0.0
  0
LINE
  5
3B3
330
1F
100
AcDbEntity
  8
0
  6
Continuous
 62
     7
370
    30
100
AcDbLine
 10
3.2652659743
 20
7.1650435979
 30
0.0
 11
3.4062660121
 21
7.1650435979
 31
0.0
  0
LINE
  5
3B4
330
1F
100
AcDbEntity
  8
0
  6
Continuous
 62
     7
370
    30
100
AcDbLine
 10
3.2972063787
 20
7.1377782862
 30
0.0
 11
3.2652659743
 21
7.1377782862
 31
0.0
  0
LINE
  5
3B5
330
1F
100
AcDbEntity
  8
0
  6
Continuous
 62
     7
370
    30
100
AcDbLine
 10
3.4062660121
 20
7.1377782862
 30
0.0
 11
3.2972063787
 21
7.1377782862
 31
0.0
  0
LINE
  5
3B6
330
1F
100
AcDbEntity
  8
0
  6
Continuous
 62
     7
370
    30
100
AcDbLine
 10
3.2838063335
 20
7.1236330363
 30
0.0
 11
3.2407660307
 21
7.1236330363
 31
0.0
  0
LINE
  5
3B7
330
1F
100
AcDbEntity
  8
0
  6
Continuous
 62
     7
370
    30
100
AcDbLine
 10
3.4307659558
 20
7.1236330363
 30
0.0
 11
3.2838063335
 21
7.1236330363
 31
0.0
  0
LINE
  5
3B8
330
1F
100
AcDbEntity
  8
0
  6
Continuous
 62
     7
370
    30
100
AcDbLine
 10
3.2972063787
 20
7.0822224747
 30
0.0
 11
3.2652659743
 21
7.0822224747
 31
0.0
  0
LINE
  5
3B9
330
1F
100
AcDbEntity
  8
0
  6
Continuous
 62
     7
370
    30
100
AcDbLine
 10
3.4062660121
 20
7.0822224747
 30
0.0
 11
3.2972063787
 21
7.0822224747
 31
0.0
  0
LINE
  5
3BA
330
1F
100
AcDbEntity
  8
0
  6
Continuous
 62
     7
370
    30
100
AcDbLine
 10
3.2838063335
 20
7.0680775181
 30
0.0
 11
3.2407660307
 21
7.0680775181
 31
0.0
  0
LINE
  5
3BB
330
1F
100
AcDbEntity
  8
0
  6
Continuous
 62
     7
370
    30
100
AcDbLine
 10
3.4307659558
 20
7.0680775181
 30
0.0
 11
3.2838063335
 21
7.0680775181
 31
0.0
  0
LINE
  5
3BC
330
1F
100
AcDbEntity
  8
0
  6
Continuous
 62
     7
370
    30
100
AcDbLine
 10
3.2652659743
 20
7.1094880797
 30
0.0
 11
3.4062660121
 21
7.1094880797
 31
0.0
  0
LINE
  5
3BD
330
1F
100
AcDbEntity
  8
0
  6
Continuous
 62
     7
370
    30
100
AcDbLine
 10
3.2652659743
 20
7.0539325615
 30
0.0
 11
3.4062660121
 21
7.0539325615
 31
0.0
  0
LINE
  5
3BE
330
1F
100
AcDbEntity
  8
0
  6
Continuous
 62
     7
370
    30
100
AcDbLine
 10
3.2972063787
 20
7.0266669565
 30
0.0
 11
3.2652659743
 21
7.0266669565
 31
0.0
  0
LINE
  5
3BF
330
1F
100
AcDbEntity
  8
0
  6
Continuous
 62
     7
370
    30
100
AcDbLine
 10
3.4062660121
 20
7.0266669565
 30
0.0
 11
3.2972063787
 21
7.0266669565
 31
0.0
  0
LINE
  5
3C0
330
1F
100
AcDbEntity
  8
0
  6
Continuous
 62
     7
370
    30
100
AcDbLine
 10
3.2838063335
 20
7.0125219999
 30
0.0
 11
3.2407660307
 21
7.0125219999
 31
0.0
  0
LINE
  5
3C1
330
1F
100
AcDbEntity
  8
0
  6
Continuous
 62
     7
370
    30
100
AcDbLine
 10
3.4307659558
 20
7.0125219999
 30
0.0
 11
3.2838063335
 21
7.0125219999
 31
0.0
  0
LINE
  5
3C2
330
1F
100
AcDbEntity
  8
0
  6
Continuous
 62
     7
370
    30
100
AcDbLine
 10
3.2652659743
 20
6.9983767499
 30
0.0
 11
3.4062660121
 21
6.9983767499
 31
0.0
  0
LINE
  5
3C3
330
1F
100
AcDbEntity
  8
0
  6
Continuous
 62
     7
370
    30
100
AcDbLine
 10
3.2838063335
 20
6.9569664816
 30
0.0
 11
3.2407660307
 21
6.9569664816
 31
0.0
  0
LINE
  5
3C4
330
1F
100
AcDbEntity
  8
0
  6
Continuous
 62
     7
370
    30
100
AcDbLine
 10
3.4307659558
 20
6.9569664816
 30
0.0
 11
3.2838063335
 21
6.9569664816
 31
0.0
  0
LINE
  5
3C5
330
1F
100
AcDbEntity
  8
0
  6
Continuous
 62
     7
370
    30
100
AcDbLine
 10
3.2652659743
 20
6.9428212317
 30
0.0
 11
3.4062660121
 21
6.9428212317
 31
0.0
  0
LINE
  5
3C6
330
1F
100
AcDbEntity
  8
0
  6
Continuous
 62
     7
370
    30
100
AcDbLine
 10
3.2972063787
 20
6.9711114382
 30
0.0
 11
3.2652659743
 21
6.9711114382
 31
0.0
  0
LINE
  5
3C7
330
1F
100
AcDbEntity
  8
0
  6
Continuous
 62
     7
370
    30
100
AcDbLine
 10
3.4062660121
 20
6.9711114382
 30
0.0
 11
3.2972063787
 21
6.9711114382
 31
0.0
  0
LINE
  5
3C8
330
1F
100
AcDbEntity
  8
0
  6
Continuous
 62
     7
370
    30
100
AcDbLine
 10
3.2838063335
 20
6.9014109634
 30
0.0
 11
3.2407660307
 21
6.9014109634
 31
0.0
  0
LINE
  5
3C9
330
1F
100
AcDbEntity
  8
0
  6
Continuous
 62
     7
370
    30
100
AcDbLine
 10
3.4307659558
 20
6.9014109634
 30
0.0
 11
3.2838063335
 21
6.9014109634
 31
0.0
  0
LINE
  5
3CA
330
1F
100
AcDbEntity
  8
0
  6
Continuous
 62
     7
370
    30
100
AcDbLine
 10
3.2652659743
 20
6.8872657135
 30
0.0
 11
3.4062660121
 21
6.8872657135
 31
0.0
  0
LINE
  5
3CB
330
1F
100
AcDbEntity
  8
0
  6
Continuous
 62
     7
370
    30
100
AcDbLine
 10
3.2972063787
 20
6.91555592
 30
0.0
 11
3.2652659743
 21
6.91555592
 31
0.0
  0
LINE
  5
3CC
330
1F
100
AcDbEntity
  8
0
  6
Continuous
 62
     7
370
    30
100
AcDbLine
 10
3.4062660121
 20
6.91555592
 30
0.0
 11
3.2972063787
 21
6.91555592
 31
0.0
  0
LINE
  5
3CD
330
1F
100
AcDbEntity
  8
0
  6
Continuous
 62
     7
370
    30
100
AcDbLine
 10
3.2838063335
 20
6.8458551519
 30
0.0
 11
3.2407660307
 21
6.8458551519
 31
0.0
  0
LINE
  5
3CE
330
1F
100
AcDbEntity
  8
0
  6
Continuous
 62
     7
370
    30
100
AcDbLine
 10
3.4307659558
 20
6.8458551519
 30
0.0
 11
3.2838063335
 21
6.8458551519
 31
0.0
  0
LINE
  5
3CF
330
1F
100
AcDbEntity
  8
0
  6
Continuous
 62
     7
370
    30
100
AcDbLine
 10
3.2652659743
 20
6.8317101953
 30
0.0
 11
3.4062660121
 21
6.8317101953
 31
0.0
  0
LINE
  5
3D0
330
1F
100
AcDbEntity
  8
0
  6
Continuous
 62
     7
370
    30
100
AcDbLine
 10
3.2972063787
 20
6.8600004018
 30
0.0
 11
3.2652659743
 21
6.8600004018
 31
0.0
  0
LINE
  5
3D1
330
1F
100
AcDbEntity
  8
0
  6
Continuous
 62
     7
370
    30
100
AcDbLine
 10
3.4062660121
 20
6.8600004018
 30
0.0
 11
3.2972063787
 21
6.8600004018
 31
0.0
  0
LINE
  5
3D2
330
1F
100
AcDbEntity
  8
0
  6
Continuous
 62
     7
370
    30
100
AcDbLine
 10
3.2838063335
 20
6.7902996337
 30
0.0
 11
3.2407660307
 21
6.7902996337
 31
0.0
  0
LINE
  5
3D3
330
1F
100
AcDbEntity
  8
0
  6
Continuous
 62
     7
370
    30
100
AcDbLine
 10
3.4307659558
 20
6.7902996337
 30
0.0
 11
3.2838063335
 21
6.7902996337
 31
0.0
  0
LINE
  5
3D4
330
1F
100
AcDbEntity
  8
0
  6
Continuous
 62
     7
370
    30
100
AcDbLine
 10
3.2652659743
 20
6.7761546771
 30
0.0
 11
3.4062660121
 21
6.7761546771
 31
0.0
  0
LINE
  5
3D5
330
1F
100
AcDbEntity
  8
0
  6
Continuous
 62
     7
370
    30
100
AcDbLine
 10
3.2972063787
 20
6.8044448836
 30
0.0
 11
3.2652659743
 21
6.8044448836
 31
0.0
  0
LINE
  5
3D6
330
1F
100
AcDbEntity
  8
0
  6
Continuous
 62
     7
370
    30
100
AcDbLine
 10
3.4062660121
 20
6.8044448836
 30
0.0
 11
3.2972063787
 21
6.8044448836
 31
0.0
  0
LINE
  5
3D7
330
1F
100
AcDbEntity
  8
0
  6
Continuous
 62
     7
370
    30
100
AcDbLine
 10
3.2972063787
 20
6.7488893654
 30
0.0
 11
3.2652659743
 21
6.7488893654
 31
0.0
  0
LINE
  5
3D8
330
1F
100
AcDbEntity
  8
0
  6
Continuous
 62
     7
370
    30
100
AcDbLine
 10
3.4062660121
 20
6.7488893654
 30
0.0
 11
3.2972063787
 21
6.7488893654
 31
0.0
  0
LINE
  5
3D9
330
1F
100
AcDbEntity
  8
0
  6
Continuous
 62
     7
370
    30
100
AcDbLine
 10
3.2838063335
 20
6.7347441154
 30
0.0
 11
3.2407660307
 21
6.7347441154
 31
0.0
  0
LINE
  5
3DA
330
1F
100
AcDbEntity
  8
0
  6
Continuous
 62
     7
370
    30
100
AcDbLine
 10
3.4307659558
 20
6.7347441154
 30
0.0
 11
3.2838063335
 21
6.7347441154
 31
0.0
  0
LINE
  5
3DB
330
1F
100
AcDbEntity
  8
0
  6
Continuous
 62
     7
370
    30
100
AcDbLine
 10
3.2652659743
 20
6.7205991589
 30
0.0
 11
3.4062660121
 21
6.7205991589
 31
0.0
  0
LINE
  5
3DC
330
1F
100
AcDbEntity
  8
0
  6
Continuous
 62
     7
370
    30
100
AcDbLine
 10
3.2972063787
 20
6.6933335538
 30
0.0
 11
3.2652659743
 21
6.6933335538
 31
0.0
  0
LINE
  5
3DD
330
1F
100
AcDbEntity
  8
0
  6
Continuous
 62
     7
370
    30
100
AcDbLine
 10
3.4062660121
 20
6.6933335538
 30
0.0
 11
3.2972063787
 21
6.6933335538
 31
0.0
  0
LINE
  5
3DE
330
1F
100
AcDbEntity
  8
0
  6
Continuous
 62
     7
370
    30
100
AcDbLine
 10
3.2838063335
 20
6.6791885972
 30
0.0
 11
3.2407660307
 21
6.6791885972
 31
0.0
  0
LINE
  5
3DF
330
1F
100
AcDbEntity
  8
0
  6
Continuous
 62
     7
370
    30
100
AcDbLine
 10
3.4307659558
 20
6.6791885972
 30
0.0
 11
3.2838063335
 21
6.6791885972
 31
0.0
  0
LINE
  5
3E0
330
1F
100
AcDbEntity
  8
0
  6
Continuous
 62
     7
370
    30
100
AcDbLine
 10
3.2652659743
 20
6.6650436406
 30
0.0
 11
3.4062660121
 21
6.6650436406
 31
0.0
  0
LINE
  5
3E1
330
1F
100
AcDbEntity
  8
0
  6
Continuous
 62
     7
370
    30
100
AcDbLine
 10
3.2838063335
 20
6.623633079
 30
0.0
 11
3.2407660307
 21
6.623633079
 31
0.0
  0
LINE
  5
3E2
330
1F
100
AcDbEntity
  8
0
  6
Continuous
 62
     7
370
    30
100
AcDbLine
 10
3.4307659558
 20
6.623633079
 30
0.0
 11
3.2838063335
 21
6.623633079
 31
0.0
  0
LINE
  5
3E3
330
1F
100
AcDbEntity
  8
0
  6
Continuous
 62
     7
370
    30
100
AcDbLine
 10
3.2652659743
 20
6.6094881224
 30
0.0
 11
3.4062660121
 21
6.6094881224
 31
0.0
  0
LINE
  5
3E4
330
1F
100
AcDbEntity
  8
0
  6
Continuous
 62
     7
370
    30
100
AcDbLine
 10
3.2972063787
 20
6.6377780356
 30
0.0
 11
3.2652659743
 21
6.6377780356
 31
0.0
  0
LINE
  5
3E5
330
1F
100
AcDbEntity
  8
0
  6
Continuous
 62
     7
370
    30
100
AcDbLine
 10
3.4062660121
 20
6.6377780356
 30
0.0
 11
3.2972063787
 21
6.6377780356
 31
0.0
  0
LINE
  5
3E6
330
1F
100
AcDbEntity
  8
0
  6
Continuous
 62
     7
370
    30
100
AcDbLine
 10
3.2838063335
 20
6.5680775608
 30
0.0
 11
3.2407660307
 21
6.5680775608
 31
0.0
  0
LINE
  5
3E7
330
1F
100
AcDbEntity
  8
0
  6
Continuous
 62
     7
370
    30
100
AcDbLine
 10
3.4307659558
 20
6.5680775608
 30
0.0
 11
3.2838063335
 21
6.5680775608
 31
0.0
  0
LINE
  5
3E8
330
1F
100
AcDbEntity
  8
0
  6
Continuous
 62
     7
370
    30
100
AcDbLine
 10
3.2652659743
 20
6.5539323109
 30
0.0
 11
3.4062660121
 21
6.5539323109
 31
0.0
  0
LINE
  5
3E9
330
1F
100
AcDbEntity
  8
0
  6
Continuous
 62
     7
370
    30
100
AcDbLine
 10
3.2972063787
 20
6.5822225174
 30
0.0
 11
3.2652659743
 21
6.5822225174
 31
0.0
  0
LINE
  5
3EA
330
1F
100
AcDbEntity
  8
0
  6
Continuous
 62
     7
370
    30
100
AcDbLine
 10
3.4062660121
 20
6.5822225174
 30
0.0
 11
3.2972063787
 21
6.5822225174
 31
0.0
  0
LINE
  5
3EB
330
1F
100
AcDbEntity
  8
0
  6
Continuous
 62
     7
370
    30
100
AcDbLine
 10
3.2972063787
 20
6.5266669992
 30
0.0
 11
3.2652659743
 21
6.5266669992
 31
0.0
  0
LINE
  5
3EC
330
1F
100
AcDbEntity
  8
0
  6
Continuous
 62
     7
370
    30
100
AcDbLine
 10
3.4062660121
 20
6.5266669992
 30
0.0
 11
3.2972063787
 21
6.5266669992
 31
0.0
  0
LINE
  5
3ED
330
1F
100
AcDbEntity
  8
0
  6
Continuous
 62
     7
370
    30
100
AcDbLine
 10
3.2838063335
 20
6.5125220426
 30
0.0
 11
3.2407660307
 21
6.5125220426
 31
0.0
  0
LINE
  5
3EE
330
1F
100
AcDbEntity
  8
0
  6
Continuous
 62
     7
370
    30
100
AcDbLine
 10
3.4307659558
 20
6.5125220426
 30
0.0
 11
3.2838063335
 21
6.5125220426
 31
0.0
  0
LINE
  5
3EF
330
1F
100
AcDbEntity
  8
0
  6
Continuous
 62
     7
370
    30
100
AcDbLine
 10
3.2972063787
 20
6.471111481
 30
0.0
 11
3.2652659743
 21
6.471111481
 31
0.0
  0
LINE
  5
3F0
330
1F
100
AcDbEntity
  8
0
  6
Continuous
 62
     7
370
    30
100
AcDbLine
 10
3.4062660121
 20
6.471111481
 30
0.0
 11
3.2972063787
 21
6.471111481
 31
0.0
  0
LINE
  5
3F1
330
1F
100
AcDbEntity
  8
0
  6
Continuous
 62
     7
370
    30
100
AcDbLine
 10
3.2838063335
 20
6.4569665244
 30
0.0
 11
3.2407660307
 21
6.4569665244
 31
0.0
  0
LINE
  5
3F2
330
1F
100
AcDbEntity
  8
0
  6
Continuous
 62
     7
370
    30
100
AcDbLine
 10
3.4307659558
 20
6.4569665244
 30
0.0
 11
3.2838063335
 21
6.4569665244
 31
0.0
  0
LINE
  5
3F3
330
1F
100
AcDbEntity
  8
0
  6
Continuous
 62
     7
370
    30
100
AcDbLine
 10
3.2652659743
 20
6.4983767926
 30
0.0
 11
3.4062660121
 21
6.4983767926
 31
0.0
  0
LINE
  5
3F4
330
1F
100
AcDbEntity
  8
0
  6
Continuous
 62
     7
370
    30
100
AcDbLine
 10
3.2972063787
 20
6.4155559627
 30
0.0
 11
3.2652659743
 21
6.4155559627
 31
0.0
  0
LINE
  5
3F5
330
1F
100
AcDbEntity
  8
0
  6
Continuous
 62
     7
370
    30
100
AcDbLine
 10
3.4062660121
 20
6.4155559627
 30
0.0
 11
3.2972063787
 21
6.4155559627
 31
0.0
  0
LINE
  5
3F6
330
1F
100
AcDbEntity
  8
0
  6
Continuous
 62
     7
370
    30
100
AcDbLine
 10
3.2838063335
 20
6.4014107128
 30
0.0
 11
3.2407660307
 21
6.4014107128
 31
0.0
  0
LINE
  5
3F7
330
1F
100
AcDbEntity
  8
0
  6
Continuous
 62
     7
370
    30
100
AcDbLine
 10
3.4307659558
 20
6.4014107128
 30
0.0
 11
3.2838063335
 21
6.4014107128
 31
0.0
  0
LINE
  5
3F8
330
1F
100
AcDbEntity
  8
0
  6
Continuous
 62
     7
370
    30
100
AcDbLine
 10
3.2652659743
 20
6.4428212744
 30
0.0
 11
3.4062660121
 21
6.4428212744
 31
0.0
  0
LINE
  5
3F9
330
1F
100
AcDbEntity
  8
0
  6
Continuous
 62
     7
370
    30
100
AcDbLine
 10
3.2652659743
 20
6.3872657562
 30
0.0
 11
3.4062660121
 21
6.3872657562
 31
0.0
  0
LINE
  5
3FA
330
1F
100
AcDbEntity
  8
0
  6
Continuous
 62
     7
370
    30
100
AcDbLine
 10
3.2972063787
 20
6.3600004445
 30
0.0
 11
3.2652659743
 21
6.3600004445
 31
0.0
  0
LINE
  5
3FB
330
1F
100
AcDbEntity
  8
0
  6
Continuous
 62
     7
370
    30
100
AcDbLine
 10
3.4062660121
 20
6.3600004445
 30
0.0
 11
3.2972063787
 21
6.3600004445
 31
0.0
  0
LINE
  5
3FC
330
1F
100
AcDbEntity
  8
0
  6
Continuous
 62
     7
370
    30
100
AcDbLine
 10
3.2838063335
 20
6.3458551946
 30
0.0
 11
3.2407660307
 21
6.3458551946
 31
0.0
  0
LINE
  5
3FD
330
1F
100
AcDbEntity
  8
0
  6
Continuous
 62
     7
370
    30
100
AcDbLine
 10
3.4307659558
 20
6.3458551946
 30
0.0
 11
3.2838063335
 21
6.3458551946
 31
0.0
  0
LINE
  5
3FE
330
1F
100
AcDbEntity
  8
0
  6
Continuous
 62
     7
370
    30
100
AcDbLine
 10
3.2652659743
 20
6.331710238
 30
0.0
 11
3.4062660121
 21
6.331710238
 31
0.0
  0
LINE
  5
3FF
330
1F
100
AcDbEntity
  8
0
  6
Continuous
 62
     7
370
    30
100
AcDbLine
 10
3.2972063787
 20
6.3044449263
 30
0.0
 11
3.2652659743
 21
6.3044449263
 31
0.0
  0
LINE
  5
400
330
1F
100
AcDbEntity
  8
0
  6
Continuous
 62
     7
370
    30
100
AcDbLine
 10
3.4062660121
 20
6.3044449263
 30
0.0
 11
3.2972063787
 21
6.3044449263
 31
0.0
  0
LINE
  5
401
330
1F
100
AcDbEntity
  8
0
  6
Continuous
 62
     7
370
    30
100
AcDbLine
 10
3.2838063335
 20
6.2902996764
 30
0.0
 11
3.2407660307
 21
6.2902996764
 31
0.0
  0
LINE
  5
402
330
1F
100
AcDbEntity
  8
0
  6
Continuous
 62
     7
370
    30
100
AcDbLine
 10
3.4307659558
 20
6.2902996764
 30
0.0
 11
3.2838063335
 21
6.2902996764
 31
0.0
  0
LINE
  5
403
330
1F
100
AcDbEntity
  8
0
  6
Continuous
 62
     7
370
    30
100
AcDbLine
 10
3.2652659743
 20
6.2761547198
 30
0.0
 11
3.4062660121
 21
6.2761547198
 31
0.0
  0
LINE
  5
404
330
1F
100
AcDbEntity
  8
0
  6
Continuous
 62
     7
370
    30
100
AcDbLine
 10
3.2838063335
 20
6.2347441582
 30
0.0
 11
3.2407660307
 21
6.2347441582
 31
0.0
  0
LINE
  5
405
330
1F
100
AcDbEntity
  8
0
  6
Continuous
 62
     7
370
    30
100
AcDbLine
 10
3.4307659558
 20
6.2347441582
 30
0.0
 11
3.2838063335
 21
6.2347441582
 31
0.0
  0
LINE
  5
406
330
1F
100
AcDbEntity
  8
0
  6
Continuous
 62
     7
370
    30
100
AcDbLine
 10
3.2652659743
 20
6.2205992016
 30
0.0
 11
3.4062660121
 21
6.2205992016
 31
0.0
  0
LINE
  5
407
330
1F
100
AcDbEntity
  8
0
  6
Continuous
 62
     7
370
    30
100
AcDbLine
 10
3.2972063787
 20
6.2488891148
 30
0.0
 11
3.2652659743
 21
6.2488891148
 31
0.0
  0
LINE
  5
408
330
1F
100
AcDbEntity
  8
0
  6
Continuous
 62
     7
370
    30
100
AcDbLine
 10
3.4062660121
 20
6.2488891148
 30
0.0
 11
3.2972063787
 21
6.2488891148
 31
0.0
  0
LINE
  5
409
330
1F
100
AcDbEntity
  8
0
  6
Continuous
 62
     7
370
    30
100
AcDbLine
 10
3.2838063335
 20
6.1791886399
 30
0.0
 11
3.2407660307
 21
6.1791886399
 31
0.0
  0
LINE
  5
40A
330
1F
100
AcDbEntity
  8
0
  6
Continuous
 62
     7
370
    30
100
AcDbLine
 10
3.4307659558
 20
6.1791886399
 30
0.0
 11
3.2838063335
 21
6.1791886399
 31
0.0
  0
LINE
  5
40B
330
1F
100
AcDbEntity
  8
0
  6
Continuous
 62
     7
370
    30
100
AcDbLine
 10
3.2652659743
 20
6.1650436833
 30
0.0
 11
3.4062660121
 21
6.1650436833
 31
0.0
  0
LINE
  5
40C
330
1F
100
AcDbEntity
  8
0
  6
Continuous
 62
     7
370
    30
100
AcDbLine
 10
3.2972063787
 20
6.1933335965
 30
0.0
 11
3.2652659743
 21
6.1933335965
 31
0.0
  0
LINE
  5
40D
330
1F
100
AcDbEntity
  8
0
  6
Continuous
 62
     7
370
    30
100
AcDbLine
 10
3.4062660121
 20
6.1933335965
 30
0.0
 11
3.2972063787
 21
6.1933335965
 31
0.0
  0
LINE
  5
40E
330
1F
100
AcDbEntity
  8
0
  6
Continuous
 62
     7
370
    30
100
AcDbLine
 10
3.2838063335
 20
6.1236331217
 30
0.0
 11
3.2407660307
 21
6.1236331217
 31
0.0
  0
LINE
  5
40F
330
1F
100
AcDbEntity
  8
0
  6
Continuous
 62
     7
370
    30
100
AcDbLine
 10
3.4307659558
 20
6.1236331217
 30
0.0
 11
3.2838063335
 21
6.1236331217
 31
0.0
  0
LINE
  5
410
330
1F
100
AcDbEntity
  8
0
  6
Continuous
 62
     7
370
    30
100
AcDbLine
 10
3.2652659743
 20
6.1094878718
 30
0.0
 11
3.4062660121
 21
6.1094878718
 31
0.0
  0
LINE
  5
411
330
1F
100
AcDbEntity
  8
0
  6
Continuous
 62
     7
370
    30
100
AcDbLine
 10
3.2972063787
 20
6.1377780783
 30
0.0
 11
3.2652659743
 21
6.1377780783
 31
0.0
  0
LINE
  5
412
330
1F
100
AcDbEntity
  8
0
  6
Continuous
 62
     7
370
    30
100
AcDbLine
 10
3.4062660121
 20
6.1377780783
 30
0.0
 11
3.2972063787
 21
6.1377780783
 31
0.0
  0
LINE
  5
413
330
1F
100
AcDbEntity
  8
0
  6
Continuous
 62
     7
370
    30
100
AcDbLine
 10
3.2838063335
 20
6.0680776035
 30
0.0
 11
3.2407660307
 21
6.0680776035
 31
0.0
  0
LINE
  5
414
330
1F
100
AcDbEntity
  8
0
  6
Continuous
 62
     7
370
    30
100
AcDbLine
 10
3.4307659558
 20
6.0680776035
 30
0.0
 11
3.2838063335
 21
6.0680776035
 31
0.0
  0
LINE
  5
415
330
1F
100
AcDbEntity
  8
0
  6
Continuous
 62
     7
370
    30
100
AcDbLine
 10
3.2652659743
 20
6.0539323536
 30
0.0
 11
3.4062660121
 21
6.0539323536
 31
0.0
  0
LINE
  5
416
330
1F
100
AcDbEntity
  8
0
  6
Continuous
 62
     7
370
    30
100
AcDbLine
 10
3.2972063787
 20
6.0822225601
 30
0.0
 11
3.2652659743
 21
6.0822225601
 31
0.0
  0
LINE
  5
417
330
1F
100
AcDbEntity
  8
0
  6
Continuous
 62
     7
370
    30
100
AcDbLine
 10
3.4062660121
 20
6.0822225601
 30
0.0
 11
3.2972063787
 21
6.0822225601
 31
0.0
  0
LINE
  5
418
330
1F
100
AcDbEntity
  8
0
  6
Continuous
 62
     7
370
    30
100
AcDbLine
 10
3.2838063335
 20
6.0125220853
 30
0.0
 11
3.2407660307
 21
6.0125220853
 31
0.0
  0
LINE
  5
419
330
1F
100
AcDbEntity
  8
0
  6
Continuous
 62
     7
370
    30
100
AcDbLine
 10
3.4307659558
 20
6.0125220853
 30
0.0
 11
3.2838063335
 21
6.0125220853
 31
0.0
  0
LINE
  5
41A
330
1F
100
AcDbEntity
  8
0
  6
Continuous
 62
     7
370
    30
100
AcDbLine
 10
3.2652659743
 20
5.9983768354
 30
0.0
 11
3.4062660121
 21
5.9983768354
 31
0.0
  0
LINE
  5
41B
330
1F
100
AcDbEntity
  8
0
  6
Continuous
 62
     7
370
    30
100
AcDbLine
 10
3.2972063787
 20
6.0266670419
 30
0.0
 11
3.2652659743
 21
6.0266670419
 31
0.0
  0
LINE
  5
41C
330
1F
100
AcDbEntity
  8
0
  6
Continuous
 62
     7
370
    30
100
AcDbLine
 10
3.4062660121
 20
6.0266670419
 30
0.0
 11
3.2972063787
 21
6.0266670419
 31
0.0
  0
LINE
  5
41D
330
1F
100
AcDbEntity
  8
0
  6
Continuous
 62
     7
370
    30
100
AcDbLine
 10
3.2838063335
 20
5.9569662737
 30
0.0
 11
3.2407660307
 21
5.9569662737
 31
0.0
  0
LINE
  5
41E
330
1F
100
AcDbEntity
  8
0
  6
Continuous
 62
     7
370
    30
100
AcDbLine
 10
3.4307659558
 20
5.9569662737
 30
0.0
 11
3.2838063335
 21
5.9569662737
 31
0.0
  0
LINE
  5
41F
330
1F
100
AcDbEntity
  8
0
  6
Continuous
 62
     7
370
    30
100
AcDbLine
 10
3.2652659743
 20
5.9428213171
 30
0.0
 11
3.4062660121
 21
5.9428213171
 31
0.0
  0
LINE
  5
420
330
1F
100
AcDbEntity
  8
0
  6
Continuous
 62
     7
370
    30
100
AcDbLine
 10
3.2972063787
 20
5.9711115237
 30
0.0
 11
3.2652659743
 21
5.9711115237
 31
0.0
  0
LINE
  5
421
330
1F
100
AcDbEntity
  8
0
  6
Continuous
 62
     7
370
    30
100
AcDbLine
 10
3.4062660121
 20
5.9711115237
 30
0.0
 11
3.2972063787
 21
5.9711115237
 31
0.0
  0
LINE
  5
422
330
1F
100
AcDbEntity
  8
0
  6
Continuous
 62
     7
370
    30
100
AcDbLine
 10
3.2838063335
 20
5.9014107555
 30
0.0
 11
3.2407660307
 21
5.9014107555
 31
0.0
  0
LINE
  5
423
330
1F
100
AcDbEntity
  8
0
  6
Continuous
 62
     7
370
    30
100
AcDbLine
 10
3.4307659558
 20
5.9014107555
 30
0.0
 11
3.2838063335
 21
5.9014107555
 31
0.0
  0
LINE
  5
424
330
1F
100
AcDbEntity
  8
0
  6
Continuous
 62
     7
370
    30
100
AcDbLine
 10
3.2652659743
 20
5.8872657989
 30
0.0
 11
3.4062660121
 21
5.8872657989
 31
0.0
  0
LINE
  5
425
330
1F
100
AcDbEntity
  8
0
  6
Continuous
 62
     7
370
    30
100
AcDbLine
 10
3.2972063787
 20
5.9155560054
 30
0.0
 11
3.2652659743
 21
5.9155560054
 31
0.0
  0
LINE
  5
426
330
1F
100
AcDbEntity
  8
0
  6
Continuous
 62
     7
370
    30
100
AcDbLine
 10
3.4062660121
 20
5.9155560054
 30
0.0
 11
3.2972063787
 21
5.9155560054
 31
0.0
  0
LINE
  5
427
330
1F
100
AcDbEntity
  8
0
  6
Continuous
 62
     7
370
    30
100
AcDbLine
 10
3.2972063787
 20
5.8600004872
 30
0.0
 11
3.2652659743
 21
5.8600004872
 31
0.0
  0
LINE
  5
428
330
1F
100
AcDbEntity
  8
0
  6
Continuous
 62
     7
370
    30
100
AcDbLine
 10
3.4062660121
 20
5.8600004872
 30
0.0
 11
3.2972063787
 21
5.8600004872
 31
0.0
  0
LINE
  5
429
330
1F
100
AcDbEntity
  8
0
  6
Continuous
 62
     7
370
    30
100
AcDbLine
 10
3.2838063335
 20
5.8458552373
 30
0.0
 11
3.2407660307
 21
5.8458552373
 31
0.0
  0
LINE
  5
42A
330
1F
100
AcDbEntity
  8
0
  6
Continuous
 62
     7
370
    30
100
AcDbLine
 10
3.4307659558
 20
5.8458552373
 30
0.0
 11
3.2838063335
 21
5.8458552373
 31
0.0
  0
LINE
  5
42B
330
1F
100
AcDbEntity
  8
0
  6
Continuous
 62
     7
370
    30
100
AcDbLine
 10
3.2652659743
 20
5.8317102807
 30
0.0
 11
3.4062660121
 21
5.8317102807
 31
0.0
  0
LINE
  5
42C
330
1F
100
AcDbEntity
  8
0
  6
Continuous
 62
     7
370
    30
100
AcDbLine
 10
3.2972063787
 20
5.8044446757
 30
0.0
 11
3.2652659743
 21
5.8044446757
 31
0.0
  0
LINE
  5
42D
330
1F
100
AcDbEntity
  8
0
  6
Continuous
 62
     7
370
    30
100
AcDbLine
 10
3.4062660121
 20
5.8044446757
 30
0.0
 11
3.2972063787
 21
5.8044446757
 31
0.0
  0
LINE
  5
42E
330
1F
100
AcDbEntity
  8
0
  6
Continuous
 62
     7
370
    30
100
AcDbLine
 10
3.2838063335
 20
5.7902997191
 30
0.0
 11
3.2407660307
 21
5.7902997191
 31
0.0
  0
LINE
  5
42F
330
1F
100
AcDbEntity
  8
0
  6
Continuous
 62
     7
370
    30
100
AcDbLine
 10
3.4307659558
 20
5.7902997191
 30
0.0
 11
3.2838063335
 21
5.7902997191
 31
0.0
  0
LINE
  5
430
330
1F
100
AcDbEntity
  8
0
  6
Continuous
 62
     7
370
    30
100
AcDbLine
 10
3.2972063787
 20
5.7488891575
 30
0.0
 11
3.2652659743
 21
5.7488891575
 31
0.0
  0
LINE
  5
431
330
1F
100
AcDbEntity
  8
0
  6
Continuous
 62
     7
370
    30
100
AcDbLine
 10
3.4062660121
 20
5.7488891575
 30
0.0
 11
3.2972063787
 21
5.7488891575
 31
0.0
  0
LINE
  5
432
330
1F
100
AcDbEntity
  8
0
  6
Continuous
 62
     7
370
    30
100
AcDbLine
 10
3.2838063335
 20
5.7347442009
 30
0.0
 11
3.2407660307
 21
5.7347442009
 31
0.0
  0
LINE
  5
433
330
1F
100
AcDbEntity
  8
0
  6
Continuous
 62
     7
370
    30
100
AcDbLine
 10
3.4307659558
 20
5.7347442009
 30
0.0
 11
3.2838063335
 21
5.7347442009
 31
0.0
  0
LINE
  5
434
330
1F
100
AcDbEntity
  8
0
  6
Continuous
 62
     7
370
    30
100
AcDbLine
 10
3.2652659743
 20
5.7761547625
 30
0.0
 11
3.4062660121
 21
5.7761547625
 31
0.0
  0
LINE
  5
435
330
1F
100
AcDbEntity
  8
0
  6
Continuous
 62
     7
370
    30
100
AcDbLine
 10
3.2652659743
 20
5.7205989509
 30
0.0
 11
3.4062660121
 21
5.7205989509
 31
0.0
  0
LINE
  5
436
330
1F
100
AcDbEntity
  8
0
  6
Continuous
 62
     7
370
    30
100
AcDbLine
 10
3.2972063787
 20
5.6933336392
 30
0.0
 11
3.2652659743
 21
5.6933336392
 31
0.0
  0
LINE
  5
437
330
1F
100
AcDbEntity
  8
0
  6
Continuous
 62
     7
370
    30
100
AcDbLine
 10
3.4062660121
 20
5.6933336392
 30
0.0
 11
3.2972063787
 21
5.6933336392
 31
0.0
  0
LINE
  5
438
330
1F
100
AcDbEntity
  8
0
  6
Continuous
 62
     7
370
    30
100
AcDbLine
 10
3.2838063335
 20
5.6791886826
 30
0.0
 11
3.2407660307
 21
5.6791886826
 31
0.0
  0
LINE
  5
439
330
1F
100
AcDbEntity
  8
0
  6
Continuous
 62
     7
370
    30
100
AcDbLine
 10
3.4307659558
 20
5.6791886826
 30
0.0
 11
3.2838063335
 21
5.6791886826
 31
0.0
  0
LINE
  5
43A
330
1F
100
AcDbEntity
  8
0
  6
Continuous
 62
     7
370
    30
100
AcDbLine
 10
3.2652659743
 20
5.6650434327
 30
0.0
 11
3.4062660121
 21
5.6650434327
 31
0.0
  0
LINE
  5
43B
330
1F
100
AcDbEntity
  8
0
  6
Continuous
 62
     7
370
    30
100
AcDbLine
 10
3.2972063787
 20
5.637778121
 30
0.0
 11
3.2652659743
 21
5.637778121
 31
0.0
  0
LINE
  5
43C
330
1F
100
AcDbEntity
  8
0
  6
Continuous
 62
     7
370
    30
100
AcDbLine
 10
3.4062660121
 20
5.637778121
 30
0.0
 11
3.2972063787
 21
5.637778121
 31
0.0
  0
LINE
  5
43D
330
1F
100
AcDbEntity
  8
0
  6
Continuous
 62
     7
370
    30
100
AcDbLine
 10
3.2838063335
 20
5.6236331644
 30
0.0
 11
3.2407660307
 21
5.6236331644
 31
0.0
  0
LINE
  5
43E
330
1F
100
AcDbEntity
  8
0
  6
Continuous
 62
     7
370
    30
100
AcDbLine
 10
3.4307659558
 20
5.6236331644
 30
0.0
 11
3.2838063335
 21
5.6236331644
 31
0.0
  0
LINE
  5
43F
330
1F
100
AcDbEntity
  8
0
  6
Continuous
 62
     7
370
    30
100
AcDbLine
 10
3.2652659743
 20
5.6094879145
 30
0.0
 11
3.4062660121
 21
5.6094879145
 31
0.0
  0
LINE
  5
440
330
1F
100
AcDbEntity
  8
0
  6
Continuous
 62
     7
370
    30
100
AcDbLine
 10
3.2972063787
 20
5.5822226028
 30
0.0
 11
3.2652659743
 21
5.5822226028
 31
0.0
  0
LINE
  5
441
330
1F
100
AcDbEntity
  8
0
  6
Continuous
 62
     7
370
    30
100
AcDbLine
 10
3.4062660121
 20
5.5822226028
 30
0.0
 11
3.2972063787
 21
5.5822226028
 31
0.0
  0
LINE
  5
442
330
1F
100
AcDbEntity
  8
0
  6
Continuous
 62
     7
370
    30
100
AcDbLine
 10
3.2838063335
 20
5.5680774995
 30
0.0
 11
3.2407660307
 21
5.5680774995
 31
0.0
  0
LINE
  5
443
330
1F
100
AcDbEntity
  8
0
  6
Continuous
 62
     7
370
    30
100
AcDbLine
 10
3.4307659558
 20
5.5680774995
 30
0.0
 11
3.2838063335
 21
5.5680774995
 31
0.0
  0
LINE
  5
444
330
1F
100
AcDbEntity
  8
0
  6
Continuous
 62
     7
370
    30
100
AcDbLine
 10
3.2652659743
 20
5.5539323963
 30
0.0
 11
3.4062660121
 21
5.5539323963
 31
0.0
  0
LINE
  5
445
330
1F
100
AcDbEntity
  8
0
  6
Continuous
 62
     7
370
    30
100
AcDbLine
 10
3.2972063787
 20
5.5266670846
 30
0.0
 11
3.2652659743
 21
5.5266670846
 31
0.0
  0
LINE
  5
446
330
1F
100
AcDbEntity
  8
0
  6
Continuous
 62
     7
370
    30
100
AcDbLine
 10
3.4062660121
 20
5.5266670846
 30
0.0
 11
3.2972063787
 21
5.5266670846
 31
0.0
  0
LINE
  5
447
330
1F
100
AcDbEntity
  8
0
  6
Continuous
 62
     7
370
    30
100
AcDbLine
 10
3.2838063335
 20
5.5125219813
 30
0.0
 11
3.2407660307
 21
5.5125219813
 31
0.0
  0
LINE
  5
448
330
1F
100
AcDbEntity
  8
0
  6
Continuous
 62
     7
370
    30
100
AcDbLine
 10
3.4307659558
 20
5.5125219813
 30
0.0
 11
3.2838063335
 21
5.5125219813
 31
0.0
  0
LINE
  5
449
330
1F
100
AcDbEntity
  8
0
  6
Continuous
 62
     7
370
    30
100
AcDbLine
 10
3.2652659743
 20
5.4983768781
 30
0.0
 11
3.4062660121
 21
5.4983768781
 31
0.0
  0
LINE
  5
44A
330
1F
100
AcDbEntity
  8
0
  6
Continuous
 62
     7
370
    30
100
AcDbLine
 10
3.2972063787
 20
5.4711114197
 30
0.0
 11
3.2652659743
 21
5.4711114197
 31
0.0
  0
LINE
  5
44B
330
1F
100
AcDbEntity
  8
0
  6
Continuous
 62
     7
370
    30
100
AcDbLine
 10
3.4062660121
 20
5.4711114197
 30
0.0
 11
3.2972063787
 21
5.4711114197
 31
0.0
  0
LINE
  5
44C
330
1F
100
AcDbEntity
  8
0
  6
Continuous
 62
     7
370
    30
100
AcDbLine
 10
3.2838063335
 20
5.4569664631
 30
0.0
 11
3.2407660307
 21
5.4569664631
 31
0.0
  0
LINE
  5
44D
330
1F
100
AcDbEntity
  8
0
  6
Continuous
 62
     7
370
    30
100
AcDbLine
 10
3.4307659558
 20
5.4569664631
 30
0.0
 11
3.2838063335
 21
5.4569664631
 31
0.0
  0
LINE
  5
44E
330
1F
100
AcDbEntity
  8
0
  6
Continuous
 62
     7
370
    30
100
AcDbLine
 10
3.2652659743
 20
5.4428213598
 30
0.0
 11
3.4062660121
 21
5.4428213598
 31
0.0
  0
LINE
  5
44F
330
1F
100
AcDbEntity
  8
0
  6
Continuous
 62
     7
370
    30
100
AcDbLine
 10
3.2972063787
 20
5.4155559015
 30
0.0
 11
3.2652659743
 21
5.4155559015
 31
0.0
  0
LINE
  5
450
330
1F
100
AcDbEntity
  8
0
  6
Continuous
 62
     7
370
    30
100
AcDbLine
 10
3.4062660121
 20
5.4155559015
 30
0.0
 11
3.2972063787
 21
5.4155559015
 31
0.0
  0
LINE
  5
451
330
1F
100
AcDbEntity
  8
0
  6
Continuous
 62
     7
370
    30
100
AcDbLine
 10
3.2838063335
 20
5.4014107982
 30
0.0
 11
3.2407660307
 21
5.4014107982
 31
0.0
  0
LINE
  5
452
330
1F
100
AcDbEntity
  8
0
  6
Continuous
 62
     7
370
    30
100
AcDbLine
 10
3.4307659558
 20
5.4014107982
 30
0.0
 11
3.2838063335
 21
5.4014107982
 31
0.0
  0
LINE
  5
453
330
1F
100
AcDbEntity
  8
0
  6
Continuous
 62
     7
370
    30
100
AcDbLine
 10
3.2652659743
 20
5.387265695
 30
0.0
 11
3.4062660121
 21
5.387265695
 31
0.0
  0
LINE
  5
454
330
1F
100
AcDbEntity
  8
0
  6
Continuous
 62
     7
370
    30
100
AcDbLine
 10
3.2972063787
 20
5.3600003833
 30
0.0
 11
3.2652659743
 21
5.3600003833
 31
0.0
  0
LINE
  5
455
330
1F
100
AcDbEntity
  8
0
  6
Continuous
 62
     7
370
    30
100
AcDbLine
 10
3.4062660121
 20
5.3600003833
 30
0.0
 11
3.2972063787
 21
5.3600003833
 31
0.0
  0
LINE
  5
456
330
1F
100
AcDbEntity
  8
0
  6
Continuous
 62
     7
370
    30
100
AcDbLine
 10
3.2838063335
 20
5.34585528
 30
0.0
 11
3.2407660307
 21
5.34585528
 31
0.0
  0
LINE
  5
457
330
1F
100
AcDbEntity
  8
0
  6
Continuous
 62
     7
370
    30
100
AcDbLine
 10
3.4307659558
 20
5.34585528
 30
0.0
 11
3.2838063335
 21
5.34585528
 31
0.0
  0
LINE
  5
458
330
1F
100
AcDbEntity
  8
0
  6
Continuous
 62
     7
370
    30
100
AcDbLine
 10
3.2652659743
 20
5.3317101767
 30
0.0
 11
3.4062660121
 21
5.3317101767
 31
0.0
  0
LINE
  5
459
330
1F
100
AcDbEntity
  8
0
  6
Continuous
 62
     7
370
    30
100
AcDbLine
 10
3.2838063335
 20
5.2902997618
 30
0.0
 11
3.2407660307
 21
5.2902997618
 31
0.0
  0
LINE
  5
45A
330
1F
100
AcDbEntity
  8
0
  6
Continuous
 62
     7
370
    30
100
AcDbLine
 10
3.4307659558
 20
5.2902997618
 30
0.0
 11
3.2838063335
 21
5.2902997618
 31
0.0
  0
LINE
  5
45B
330
1F
100
AcDbEntity
  8
0
  6
Continuous
 62
     7
370
    30
100
AcDbLine
 10
3.2652659743
 20
5.2761546585
 30
0.0
 11
3.4062660121
 21
5.2761546585
 31
0.0
  0
LINE
  5
45C
330
1F
100
AcDbEntity
  8
0
  6
Continuous
 62
     7
370
    30
100
AcDbLine
 10
3.2972063787
 20
5.3044448651
 30
0.0
 11
3.2652659743
 21
5.3044448651
 31
0.0
  0
LINE
  5
45D
330
1F
100
AcDbEntity
  8
0
  6
Continuous
 62
     7
370
    30
100
AcDbLine
 10
3.4062660121
 20
5.3044448651
 30
0.0
 11
3.2972063787
 21
5.3044448651
 31
0.0
  0
LINE
  5
45E
330
1F
100
AcDbEntity
  8
0
  6
Continuous
 62
     7
370
    30
100
AcDbLine
 10
3.2838063335
 20
5.2347442436
 30
0.0
 11
3.2407660307
 21
5.2347442436
 31
0.0
  0
LINE
  5
45F
330
1F
100
AcDbEntity
  8
0
  6
Continuous
 62
     7
370
    30
100
AcDbLine
 10
3.4307659558
 20
5.2347442436
 30
0.0
 11
3.2838063335
 21
5.2347442436
 31
0.0
  0
LINE
  5
460
330
1F
100
AcDbEntity
  8
0
  6
Continuous
 62
     7
370
    30
100
AcDbLine
 10
3.2652659743
 20
5.2205991403
 30
0.0
 11
3.4062660121
 21
5.2205991403
 31
0.0
  0
LINE
  5
461
330
1F
100
AcDbEntity
  8
0
  6
Continuous
 62
     7
370
    30
100
AcDbLine
 10
3.2972063787
 20
5.2488892002
 30
0.0
 11
3.2652659743
 21
5.2488892002
 31
0.0
  0
LINE
  5
462
330
1F
100
AcDbEntity
  8
0
  6
Continuous
 62
     7
370
    30
100
AcDbLine
 10
3.4062660121
 20
5.2488892002
 30
0.0
 11
3.2972063787
 21
5.2488892002
 31
0.0
  0
LINE
  5
463
330
1F
100
AcDbEntity
  8
0
  6
Continuous
 62
     7
370
    30
100
AcDbLine
 10
3.2972063787
 20
5.193333682
 30
0.0
 11
3.2652659743
 21
5.193333682
 31
0.0
  0
LINE
  5
464
330
1F
100
AcDbEntity
  8
0
  6
Continuous
 62
     7
370
    30
100
AcDbLine
 10
3.4062660121
 20
5.193333682
 30
0.0
 11
3.2972063787
 21
5.193333682
 31
0.0
  0
LINE
  5
465
330
1F
100
AcDbEntity
  8
0
  6
Continuous
 62
     7
370
    30
100
AcDbLine
 10
3.2838063335
 20
5.1791885787
 30
0.0
 11
3.2407660307
 21
5.1791885787
 31
0.0
  0
LINE
  5
466
330
1F
100
AcDbEntity
  8
0
  6
Continuous
 62
     7
370
    30
100
AcDbLine
 10
3.4307659558
 20
5.1791885787
 30
0.0
 11
3.2838063335
 21
5.1791885787
 31
0.0
  0
LINE
  5
467
330
1F
100
AcDbEntity
  8
0
  6
Continuous
 62
     7
370
    30
100
AcDbLine
 10
3.2652659743
 20
5.1650434754
 30
0.0
 11
3.4062660121
 21
5.1650434754
 31
0.0
  0
LINE
  5
468
330
1F
100
AcDbEntity
  8
0
  6
Continuous
 62
     7
370
    30
100
AcDbLine
 10
3.2972063787
 20
5.1377781637
 30
0.0
 11
3.2652659743
 21
5.1377781637
 31
0.0
  0
LINE
  5
469
330
1F
100
AcDbEntity
  8
0
  6
Continuous
 62
     7
370
    30
100
AcDbLine
 10
3.4062660121
 20
5.1377781637
 30
0.0
 11
3.2972063787
 21
5.1377781637
 31
0.0
  0
LINE
  5
46A
330
1F
100
AcDbEntity
  8
0
  6
Continuous
 62
     7
370
    30
100
AcDbLine
 10
3.2838063335
 20
5.1236330605
 30
0.0
 11
3.2407660307
 21
5.1236330605
 31
0.0
  0
LINE
  5
46B
330
1F
100
AcDbEntity
  8
0
  6
Continuous
 62
     7
370
    30
100
AcDbLine
 10
3.4307659558
 20
5.1236330605
 30
0.0
 11
3.2838063335
 21
5.1236330605
 31
0.0
  0
LINE
  5
46C
330
1F
100
AcDbEntity
  8
0
  6
Continuous
 62
     7
370
    30
100
AcDbLine
 10
3.2972063787
 20
5.0822226455
 30
0.0
 11
3.2652659743
 21
5.0822226455
 31
0.0
  0
LINE
  5
46D
330
1F
100
AcDbEntity
  8
0
  6
Continuous
 62
     7
370
    30
100
AcDbLine
 10
3.4062660121
 20
5.0822226455
 30
0.0
 11
3.2972063787
 21
5.0822226455
 31
0.0
  0
LINE
  5
46E
330
1F
100
AcDbEntity
  8
0
  6
Continuous
 62
     7
370
    30
100
AcDbLine
 10
3.2838063335
 20
5.0680775423
 30
0.0
 11
3.2407660307
 21
5.0680775423
 31
0.0
  0
LINE
  5
46F
330
1F
100
AcDbEntity
  8
0
  6
Continuous
 62
     7
370
    30
100
AcDbLine
 10
3.4307659558
 20
5.0680775423
 30
0.0
 11
3.2838063335
 21
5.0680775423
 31
0.0
  0
LINE
  5
470
330
1F
100
AcDbEntity
  8
0
  6
Continuous
 62
     7
370
    30
100
AcDbLine
 10
3.2652659743
 20
5.1094879572
 30
0.0
 11
3.4062660121
 21
5.1094879572
 31
0.0
  0
LINE
  5
471
330
1F
100
AcDbEntity
  8
0
  6
Continuous
 62
     7
370
    30
100
AcDbLine
 10
3.2652659743
 20
5.053932439
 30
0.0
 11
3.4062660121
 21
5.053932439
 31
0.0
  0
LINE
  5
472
330
1F
100
AcDbEntity
  8
0
  6
Continuous
 62
     7
370
    30
100
AcDbLine
 10
3.2972063787
 20
5.0266669806
 30
0.0
 11
3.2652659743
 21
5.0266669806
 31
0.0
  0
LINE
  5
473
330
1F
100
AcDbEntity
  8
0
  6
Continuous
 62
     7
370
    30
100
AcDbLine
 10
3.4062660121
 20
5.0266669806
 30
0.0
 11
3.2972063787
 21
5.0266669806
 31
0.0
  0
LINE
  5
474
330
1F
100
AcDbEntity
  8
0
  6
Continuous
 62
     7
370
    30
100
AcDbLine
 10
3.2972063787
 20
7.2867643785
 30
0.0
 11
3.2652659743
 21
7.2867643785
 31
0.0
  0
LINE
  5
475
330
1F
100
AcDbEntity
  8
0
  6
Continuous
 62
     7
370
    30
100
AcDbLine
 10
3.4062660121
 20
7.2867643785
 30
0.0
 11
3.2972063787
 21
7.2867643785
 31
0.0
  0
LINE
  5
476
330
1F
100
AcDbEntity
  8
0
  6
Continuous
 62
     7
370
    30
100
AcDbLine
 10
7.99176588
 20
7.1718796523
 30
0.0
 11
7.99176588
 21
7.2118795902
 31
0.0
  0
LINE
  5
477
330
1F
100
AcDbEntity
  8
0
  6
Continuous
 62
     7
370
    30
100
AcDbLine
 10
6.3977660074
 20
7.2118795902
 30
0.0
 11
6.3977660074
 21
7.1718796523
 31
0.0
  0
LINE
  5
478
330
1F
100
AcDbEntity
  8
0
  6
Continuous
 62
     7
370
    30
100
AcDbLine
 10
7.99176588
 20
7.2118795902
 30
0.0
 11
6.3977660074
 21
7.2118795902
 31
0.0
  0
LINE
  5
479
330
1F
100
AcDbEntity
  8
0
  6
Continuous
 62
     7
370
    30
100
AcDbLine
 10
7.99176588
 20
7.1718796523
 30
0.0
 11
6.3977660074
 21
7.1718796523
 31
0.0
  0
LINE
  5
47A
330
1F
100
AcDbEntity
  8
0
  6
Continuous
 62
     7
370
    30
100
AcDbLine
 10
6.335765957
 20
7.1498796131
 30
0.0
 11
6.3757659682
 21
7.1498796131
 31
0.0
  0
SPLINE
  5
47B
330
1F
100
AcDbEntity
  8
0
  6
Continuous
 62
     7
370
    30
100
AcDbSpline
210
0.0
220
0.0
230
1.0
 70
     8
 71
     3
 72
    13
 73
     9
 74
     0
 42
0.000000001
 43
0.00000001
 40
0.0
 40
0.0
 40
0.0
 40
0.0
 40
0.0986573864016567
 40
0.1888885004185809
 40
0.2721439712445963
 40
0.3502638341928707
 40
0.6095439015484501
 40
1.0
 40
1.0
 40
1.0
 40
1.0
 10
6.375765968210894
 20
7.149879613099531
 30
0.0
 10
6.375979657136859
 20
7.152175016511406
 30
0.0
 10
6.376388783936723
 20
7.156569774209119
 30
0.0
 10
6.379112263502086
 20
7.161919427652024
 30
0.0
 10
6.382295532454449
 20
7.165746006330811
 30
0.0
 10
6.387948245108332
 20
7.170130163349839
 30
0.0
 10
6.394299970836914
 20
7.171790217274811
 30
0.0
 10
6.39646496415888
 20
7.17184608114114
 30
0.0
 10
6.397766007397898
 20
7.171879652286534
 30
0.0
  0
SPLINE
  5
47C
330
1F
100
AcDbEntity
  8
0
  6
Continuous
 62
     7
370
    30
100
AcDbSpline
210
0.0
220
0.0
230
1.0
 70
     8
 71
     3
 72
    14
 73
    10
 74
     0
 42
0.000000001
 43
0.00000001
 40
0.0
 40
0.0
 40
0.0
 40
0.0
 40
0.1565887128925434
 40
0.2925023684340912
 40
0.4081686416566521
 40
0.5043314545956027
 40
0.6193525838096108
 40
0.7367348378533092
 40
1.0
 40
1.0
 40
1.0
 40
1.0
 10
6.335765956961104
 20
7.14987961309953
 30
0.0
 10
6.336340573039463
 20
7.156287322925926
 30
0.0
 10
6.337413936251638
 20
7.168256706068794
 30
0.0
 10
6.344858879308656
 20
7.183299380653536
 30
0.0
 10
6.35363868860168
 20
7.194042112306343
 30
0.0
 10
6.363518765792595
 20
7.20201757734544
 30
0.0
 10
6.373813752374933
 20
7.207452307080678
 30
0.0
 10
6.387759299918011
 20
7.211690489139815
 30
0.0
 10
6.393674741664201
 20
7.211802275791978
 30
0.0
 10
6.397766007397898
 20
7.211879590203837
 30
0.0
  0
LINE
  5
47D
330
1F
100
AcDbEntity
  8
0
  6
Continuous
 62
     7
370
    30
100
AcDbLine
 10
8.0136453606
 20
7.1521793199
 30
0.0
 11
8.0534264744
 21
7.1563604449
 31
0.0
  0
SPLINE
  5
47E
330
1F
100
AcDbEntity
  8
0
  6
Continuous
 62
     7
370
    30
100
AcDbSpline
210
0.0
220
0.0
230
1.0
 70
     8
 71
     3
 72
    15
 73
    11
 74
     0
 42
0.000000001
 43
0.00000001
 40
0.0
 40
0.0
 40
0.0
 40
0.0
 40
0.1299675630912833
 40
0.2518701797336206
 40
0.3715640035195369
 40
0.4952120489821375
 40
0.5890055295377786
 40
0.7039608583247027
 40
0.840826776088511
 40
0.9999999999999999
 40
0.9999999999999999
 40
0.9999999999999999
 40
0.9999999999999999
 10
7.991765880042014
 20
7.211879590203837
 30
0.0
 10
7.993169051811497
 20
7.21186529175444
 30
0.0
 10
7.995888323584938
 20
7.211837582124944
 30
0.0
 10
8.003358542196018
 20
7.210989381740277
 30
0.0
 10
8.012979517119065
 20
7.208486984546409
 30
0.0
 10
8.023124949538472
 20
7.203777666917168
 30
0.0
 10
8.032917053200253
 20
7.196742783289616
 30
0.0
 10
8.041836962288317
 20
7.187309990846756
 30
0.0
 10
8.050080216002643
 20
7.173701956555146
 30
0.0
 10
8.052256394724347
 20
7.162424217604892
 30
0.0
 10
8.053426474400233
 20
7.156360444899074
 30
0.0
  0
SPLINE
  5
47F
330
1F
100
AcDbEntity
  8
0
  6
Continuous
 62
     7
370
    30
100
AcDbSpline
210
0.0
220
0.0
230
1.0
 70
     8
 71
     3
 72
    12
 73
     8
 74
     0
 42
0.000000001
 43
0.00000001
 40
0.0
 40
0.0
 40
0.0
 40
0.0
 40
0.3713647231711962
 40
0.6426855040913142
 40
0.8048414354777471
 40
0.8977512009299521
 40
1.0
 40
1.0
 40
1.0
 40
1.0
 10
7.991765880042014
 20
7.171879652286533
 30
0.0
 10
7.992768044480854
 20
7.171862294374885
 30
0.0
 10
7.994502394884572
 20
7.171832254692866
 30
0.0
 10
8.001395733490153
 20
7.170424389669342
 30
0.0
 10
8.008587305378871
 20
7.164680447890083
 30
0.0
 10
8.012400799113793
 20
7.158494881039862
 30
0.0
 10
8.01321747975819
 20
7.154350612929393
 30
0.0
 10
8.013645360621721
 20
7.152179319866455
 30
0.0
  0
LWPOLYLINE
  5
480
330
1F
100
AcDbEntity
  8
0
  6
Continuous
 62
     7
370
    30
100
AcDbPolyline
 90
        9
 70
   128
 43
0.0
 10
8.0545651812
 20
7.1455260101
 10
8.0544220362
 20
7.1468873543
 10
8.0542788912
 20
7.1482478186
 10
8.0541360395
 20
7.1496068163
 10
8.0539934812
 20
7.1509640539
 10
8.0538512162
 20
7.1523186516
 10
8.0537092445
 20
7.1536700226
 10
8.0535675661
 20
7.1550175804
 10
8.0534264744
 20
7.1563604449
  0
LINE
  5
481
330
1F
100
AcDbEntity
  8
0
  6
Continuous
 62
     7
370
    30
100
AcDbLine
 10
8.0147840675
 20
7.141344885
 30
0.0
 11
8.0545651812
 21
7.1455260101
 31
0.0
  0
LWPOLYLINE
  5
482
330
1F
100
AcDbEntity
  8
0
  6
Continuous
 62
     7
370
    30
100
AcDbPolyline
 90
        9
 70
   128
 43
0.0
 10
8.0147840675
 20
7.141344885
 10
8.0146412158
 20
7.142705936
 10
8.0144980708
 20
7.1440666936
 10
8.0143552191
 20
7.1454256912
 10
8.0142126607
 20
7.1467829289
 10
8.0140703957
 20
7.1481375266
 10
8.0139281307
 20
7.1494888976
 10
8.0137867457
 20
7.1508364554
 10
8.0136453606
 20
7.1521793199
  0
LINE
  5
483
330
1F
100
AcDbEntity
  8
0
  6
Continuous
 62
     7
370
    30
100
AcDbLine
 10
6.3757659682
 20
7.1498796131
 30
0.0
 11
6.3757659682
 21
7.1426716164
 31
0.0
  0
LINE
  5
484
330
1F
100
AcDbEntity
  8
0
  6
Continuous
 62
     7
370
    30
100
AcDbLine
 10
6.3757659682
 20
7.1426716164
 30
0.0
 11
6.335765957
 21
7.1426716164
 31
0.0
  0
LINE
  5
485
330
1F
100
AcDbEntity
  8
0
  6
Continuous
 62
     7
370
    30
100
AcDbLine
 10
6.335765957
 20
7.1498796131
 30
0.0
 11
6.335765957
 21
7.1426716164
 31
0.0
  0
LINE
  5
486
330
1F
100
AcDbEntity
  8
0
  6
Continuous
 62
     7
370
    30
100
AcDbLine
 10
8.1964553288
 20
5.412858586
 30
0.0
 11
8.2362364426
 21
5.4170398577
 31
0.0
  0
LINE
  5
487
330
1F
100
AcDbEntity
  8
0
  6
Continuous
 62
     7
370
    30
100
AcDbLine
 10
8.2362364426
 20
5.4170398577
 30
0.0
 11
8.0545651812
 21
7.1455260101
 31
0.0
  0
LINE
  5
488
330
1F
100
AcDbEntity
  8
0
  6
Continuous
 62
     7
370
    30
100
AcDbLine
 10
8.1964553288
 20
5.412858586
 30
0.0
 11
8.0147840675
 21
7.141344885
 31
0.0
  0
LINE
  5
489
330
1F
100
AcDbEntity
  8
0
  6
Continuous
 62
     7
370
    30
100
AcDbLine
 10
6.3757659682
 20
6.2968297876
 30
0.0
 11
6.335765957
 21
6.2968297876
 31
0.0
  0
LINE
  5
48A
330
1F
100
AcDbEntity
  8
0
  6
Continuous
 62
     7
370
    30
100
AcDbLine
 10
6.335765957
 20
7.1426716164
 30
0.0
 11
6.335765957
 21
6.2968297876
 31
0.0
  0
LINE
  5
48B
330
1F
100
AcDbEntity
  8
0
  6
Continuous
 62
     7
370
    30
100
AcDbLine
 10
6.3757659682
 20
7.1426716164
 30
0.0
 11
6.3757659682
 21
6.2968297876
 31
0.0
  0
LINE
  5
48C
330
1F
100
AcDbEntity
  8
0
  6
Continuous
 62
     7
370
    30
100
AcDbLine
 10
7.0857660396
 20
7.253879745
 30
0.0
 11
7.0132660238
 21
7.253879745
 31
0.0
  0
LINE
  5
48D
330
1F
100
AcDbEntity
  8
0
  6
Continuous
 62
     7
370
    30
100
AcDbLine
 10
7.1582659087
 20
7.253879745
 30
0.0
 11
7.0857660396
 21
7.253879745
 31
0.0
  0
LINE
  5
48E
330
1F
100
AcDbEntity
  8
0
  6
Continuous
 62
     7
370
    30
100
AcDbLine
 10
4.0457659912
 20
7.1498796131
 30
0.0
 11
4.0857660025
 21
7.1498796131
 31
0.0
  0
LINE
  5
48F
330
1F
100
AcDbEntity
  8
0
  6
Continuous
 62
     7
370
    30
100
AcDbLine
 10
4.023765952
 20
7.1718796523
 30
0.0
 11
4.023765952
 21
7.2118795902
 31
0.0
  0
SPLINE
  5
490
330
1F
100
AcDbEntity
  8
0
  6
Continuous
 62
     7
370
    30
100
AcDbSpline
210
0.0
220
0.0
230
1.0
 70
     8
 71
     3
 72
    13
 73
     9
 74
     0
 42
0.000000001
 43
0.00000001
 40
0.0
 40
0.0
 40
0.0
 40
0.0
 40
0.3814948935731409
 40
0.6474580027785287
 40
0.7247043314726752
 40
0.8080772465598854
 40
0.8993858406085674
 40
1.0
 40
1.0
 40
1.0
 40
1.0
 10
4.023765952049119
 20
7.171879652286533
 30
0.0
 10
4.024937576701808
 20
7.17186557166941
 30
0.0
 10
4.026926011594163
 20
7.171841674604486
 30
0.0
 10
4.033475719918796
 20
7.170201577172369
 30
0.0
 10
4.039161602780964
 20
7.165812476119968
 30
0.0
 10
4.042362608711525
 20
7.162010761767575
 30
0.0
 10
4.045128589947958
 20
7.156641007039091
 30
0.0
 10
4.045546765586329
 20
7.152205104132298
 30
0.0
 10
4.045765991236122
 20
7.14987961309953
 30
0.0
  0
SPLINE
  5
491
330
1F
100
AcDbEntity
  8
0
  6
Continuous
 62
     7
370
    30
100
AcDbSpline
210
0.0
220
0.0
230
1.0
 70
     8
 71
     3
 72
    15
 73
    11
 74
     0
 42
0.000000001
 43
0.00000001
 40
0.0
 40
0.0
 40
0.0
 40
0.0
 40
0.1331378279508301
 40
0.2562164292629319
 40
0.3748315845515752
 40
0.4951953964748027
 40
0.5896649686188853
 40
0.7048558210601608
 40
0.8415000565335637
 40
1.0
 40
1.0
 40
1.0
 40
1.0
 10
4.023765952049119
 20
7.211879590203837
 30
0.0
 10
4.025469927392725
 20
7.211854846156221
 30
0.0
 10
4.028749134247834
 20
7.211807227597145
 30
0.0
 10
4.036965400219972
 20
7.21069670133283
 30
0.0
 10
4.047142292056156
 20
7.207700295034686
 30
0.0
 10
4.057704691253837
 20
7.202241649549163
 30
0.0
 10
4.0676886821084
 20
7.194230864216552
 30
0.0
 10
4.076509038465837
 20
7.183565198574225
 30
0.0
 10
4.084077311908338
 20
7.168462444299797
 30
0.0
 10
4.085175986330389
 20
7.156372318612974
 30
0.0
 10
4.085766002485911
 20
7.14987961309953
 30
0.0
  0
LINE
  5
492
330
1F
100
AcDbEntity
  8
0
  6
Continuous
 62
     7
370
    30
100
AcDbLine
 10
2.4297660794
 20
7.2118795902
 30
0.0
 11
2.4297660794
 21
7.1718796523
 31
0.0
  0
LINE
  5
493
330
1F
100
AcDbEntity
  8
0
  6
Continuous
 62
     7
370
    30
100
AcDbLine
 10
2.4297660794
 20
7.1718796523
 30
0.0
 11
4.023765952
 21
7.1718796523
 31
0.0
  0
LINE
  5
494
330
1F
100
AcDbEntity
  8
0
  6
Continuous
 62
     7
370
    30
100
AcDbLine
 10
2.4297660794
 20
7.2118795902
 30
0.0
 11
4.023765952
 21
7.2118795902
 31
0.0
  0
SPLINE
  5
495
330
1F
100
AcDbEntity
  8
0
  6
Continuous
 62
     7
370
    30
100
AcDbSpline
210
0.0
220
0.0
230
1.0
 70
     8
 71
     3
 72
    14
 73
    10
 74
     0
 42
0.000000001
 43
0.00000001
 40
0.0
 40
0.0
 40
0.0
 40
0.0
 40
0.1552766074311854
 40
0.2906400613184375
 40
0.4065520872876567
 40
0.5037834112954191
 40
0.6158246494424218
 40
0.7325620431888104
 40
1.0
 40
1.0
 40
1.0
 40
1.0
 10
2.368105485046783
 20
7.156360444899074
 30
0.0
 10
2.369233838457105
 20
7.162275155141408
 30
0.0
 10
2.371345841738153
 20
7.173346054847113
 30
0.0
 10
2.379375894255044
 20
7.186869909722067
 30
0.0
 10
2.388258461062343
 20
7.196451735338472
 30
0.0
 10
2.397844502553358
 20
7.203409448015249
 30
0.0
 10
2.407508147205172
 20
7.20806072362676
 30
0.0
 10
2.420359554087919
 20
7.211698327809867
 30
0.0
 10
2.425905412529349
 20
7.21180519570676
 30
0.0
 10
2.429766079405002
 20
7.211879590203837
 30
0.0
  0
SPLINE
  5
496
330
1F
100
AcDbEntity
  8
0
  6
Continuous
 62
     7
370
    30
100
AcDbSpline
210
0.0
220
0.0
230
1.0
 70
     8
 71
     3
 72
    12
 73
     8
 74
     0
 42
0.000000001
 43
0.00000001
 40
0.0
 40
0.0
 40
0.0
 40
0.0
 40
0.0982710722133953
 40
0.1890534359786161
 40
0.3530648798608084
 40
0.6099325229125843
 40
1.0
 40
1.0
 40
1.0
 40
1.0
 10
2.407886598825295
 20
7.152179319866455
 30
0.0
 10
2.408300658396373
 20
7.154298765592165
 30
0.0
 10
2.409097224291596
 20
7.15837614551477
 30
0.0
 10
2.412839844806407
 20
7.164580947336518
 30
0.0
 10
2.419953082346671
 20
7.170276489452709
 30
0.0
 10
2.426461836395233
 20
7.171748757342535
 30
0.0
 10
2.428523191742087
 20
7.171830416285867
 30
0.0
 10
2.429766079405002
 20
7.171879652286533
 30
0.0
  0
LINE
  5
497
330
1F
100
AcDbEntity
  8
0
  6
Continuous
 62
     7
370
    30
100
AcDbLine
 10
2.368105485
 20
7.1563604449
 30
0.0
 11
2.4078865988
 21
7.1521793199
 31
0.0
  0
LWPOLYLINE
  5
498
330
1F
100
AcDbEntity
  8
0
  6
Continuous
 62
     7
370
    30
100
AcDbPolyline
 90
        9
 70
   128
 43
0.0
 10
2.4078865988
 20
7.1521793199
 10
2.4077452138
 20
7.1508364554
 10
2.4076038288
 20
7.1494888976
 10
2.4074615637
 20
7.1481375266
 10
2.4073192987
 20
7.1467829289
 10
2.4071767404
 20
7.1454256912
 10
2.4070338887
 20
7.1440666936
 10
2.4068907437
 20
7.142705936
 10
2.406747892
 20
7.141344885
  0
LINE
  5
499
330
1F
100
AcDbEntity
  8
0
  6
Continuous
 62
     7
370
    30
100
AcDbLine
 10
2.406747892
 20
7.141344885
 30
0.0
 11
2.3669667782
 21
7.1455260101
 31
0.0
  0
LWPOLYLINE
  5
49A
330
1F
100
AcDbEntity
  8
0
  6
Continuous
 62
     7
370
    30
100
AcDbPolyline
 90
        9
 70
   128
 43
0.0
 10
2.368105485
 20
7.1563604449
 10
2.3679643933
 20
7.1550175804
 10
2.367822715
 20
7.1536700226
 10
2.3676807433
 20
7.1523186516
 10
2.3675384783
 20
7.1509640539
 10
2.3673959199
 20
7.1496068163
 10
2.3672530682
 20
7.1482478186
 10
2.3671099232
 20
7.1468873543
 10
2.3669667782
 20
7.1455260101
  0
LINE
  5
49B
330
1F
100
AcDbEntity
  8
0
  6
Continuous
 62
     7
370
    30
100
AcDbLine
 10
4.0457659912
 20
7.1426716164
 30
0.0
 11
4.0857660025
 21
7.1426716164
 31
0.0
  0
LINE
  5
49C
330
1F
100
AcDbEntity
  8
0
  6
Continuous
 62
     7
370
    30
100
AcDbLine
 10
4.0457659912
 20
7.1426716164
 30
0.0
 11
4.0457659912
 21
7.1498796131
 31
0.0
  0
LINE
  5
49D
330
1F
100
AcDbEntity
  8
0
  6
Continuous
 62
     7
370
    30
100
AcDbLine
 10
4.0857660025
 20
7.1426716164
 30
0.0
 11
4.0857660025
 21
7.1498796131
 31
0.0
  0
LINE
  5
49E
330
1F
100
AcDbEntity
  8
0
  6
Continuous
 62
     7
370
    30
100
AcDbLine
 10
4.0457659912
 20
6.2968297876
 30
0.0
 11
4.0857660025
 21
6.2968297876
 31
0.0
  0
LINE
  5
49F
330
1F
100
AcDbEntity
  8
0
  6
Continuous
 62
     7
370
    30
100
AcDbLine
 10
4.0457659912
 20
6.2968297876
 30
0.0
 11
4.0457659912
 21
7.1426716164
 31
0.0
  0
LINE
  5
4A0
330
1F
100
AcDbEntity
  8
0
  6
Continuous
 62
     7
370
    30
100
AcDbLine
 10
4.0857660025
 20
6.2968297876
 30
0.0
 11
4.0857660025
 21
7.1426716164
 31
0.0
  0
LINE
  5
4A1
330
1F
100
AcDbEntity
  8
0
  6
Continuous
 62
     7
370
    30
100
AcDbLine
 10
2.2250766307
 20
5.412858586
 30
0.0
 11
2.1852955169
 21
5.4170398577
 31
0.0
  0
LINE
  5
4A2
330
1F
100
AcDbEntity
  8
0
  6
Continuous
 62
     7
370
    30
100
AcDbLine
 10
2.3669667782
 20
7.1455260101
 30
0.0
 11
2.1852955169
 21
5.4170398577
 31
0.0
  0
LINE
  5
4A3
330
1F
100
AcDbEntity
  8
0
  6
Continuous
 62
     7
370
    30
100
AcDbLine
 10
2.406747892
 20
7.141344885
 30
0.0
 11
2.2250766307
 21
5.412858586
 31
0.0
  0
LINE
  5
4A4
330
1F
100
AcDbEntity
  8
0
  6
Continuous
 62
     7
370
    30
100
AcDbLine
 10
3.4082659357
 20
7.253879745
 30
0.0
 11
3.2632660507
 21
7.253879745
 31
0.0
  0
LINE
  5
4A5
330
1F
100
AcDbEntity
  8
0
  6
Continuous
 62
     7
370
    30
100
AcDbLine
 10
4.8357659751
 20
4.3769663794
 30
0.0
 11
4.8357659751
 21
4.3139663671
 31
0.0
  0
LINE
  5
4A6
330
1F
100
AcDbEntity
  8
0
  6
Continuous
 62
     7
370
    30
100
AcDbLine
 10
4.8357659751
 20
4.3139663671
 30
0.0
 11
4.3357659811
 21
4.3139663671
 31
0.0
  0
LINE
  5
4A7
330
1F
100
AcDbEntity
  8
0
  6
Continuous
 62
     7
370
    30
100
AcDbLine
 10
4.8357659751
 20
4.3769663794
 30
0.0
 11
4.3357659811
 21
4.3769663794
 31
0.0
  0
LINE
  5
4A8
330
1F
100
AcDbEntity
  8
0
  6
Continuous
 62
     7
370
    30
100
AcDbLine
 10
4.3357659811
 20
4.3769663794
 30
0.0
 11
4.3357659811
 21
4.3139663671
 31
0.0
  0
LINE
  5
4A9
330
1F
100
AcDbEntity
  8
0
  6
Continuous
 62
     7
370
    30
100
AcDbLine
 10
4.0487659499
 20
4.9259663706
 30
0.0
 11
4.0487659499
 21
4.300966424
 31
0.0
  0
LINE
  5
4AA
330
1F
100
AcDbEntity
  8
0
  6
Continuous
 62
     7
370
    30
100
AcDbLine
 10
4.0487659499
 20
4.300966424
 30
0.0
 11
3.985766011
 21
4.300966424
 31
0.0
  0
LINE
  5
4AB
330
1F
100
AcDbEntity
  8
0
  6
Continuous
 62
     7
370
    30
100
AcDbLine
 10
4.0487659499
 20
4.9259663706
 30
0.0
 11
3.985766011
 21
4.9259663706
 31
0.0
  0
LINE
  5
4AC
330
1F
100
AcDbEntity
  8
0
  6
Continuous
 62
     7
370
    30
100
AcDbLine
 10
5.1227659788
 20
4.9259663706
 30
0.0
 11
5.1857659796
 21
4.9259663706
 31
0.0
  0
LINE
  5
4AD
330
1F
100
AcDbEntity
  8
0
  6
Continuous
 62
     7
370
    30
100
AcDbLine
 10
5.1227659788
 20
4.300966424
 30
0.0
 11
5.1857659796
 21
4.300966424
 31
0.0
  0
LINE
  5
4AE
330
1F
100
AcDbEntity
  8
0
  6
Continuous
 62
     7
370
    30
100
AcDbLine
 10
5.1227659788
 20
4.9259663706
 30
0.0
 11
5.1227659788
 21
4.300966424
 31
0.0
  0
LINE
  5
4AF
330
1F
100
AcDbEntity
  8
0
  6
Continuous
 62
     7
370
    30
100
AcDbLine
 10
4.0637659633
 20
4.4259664133
 30
0.0
 11
4.0637659633
 21
4.9259663706
 31
0.0
  0
LINE
  5
4B0
330
1F
100
AcDbEntity
  8
0
  6
Continuous
 62
     7
370
    30
100
AcDbLine
 10
4.0487659499
 20
4.4259664133
 30
0.0
 11
4.0637659633
 21
4.4259664133
 31
0.0
  0
LINE
  5
4B1
330
1F
100
AcDbEntity
  8
0
  6
Continuous
 62
     7
370
    30
100
AcDbLine
 10
4.0637659633
 20
4.9259663706
 30
0.0
 11
4.0487659499
 21
4.9259663706
 31
0.0
  0
LINE
  5
4B2
330
1F
100
AcDbEntity
  8
0
  6
Continuous
 62
     7
370
    30
100
AcDbLine
 10
5.1077659838
 20
4.4259664133
 30
0.0
 11
5.1227659788
 21
4.4259664133
 31
0.0
  0
LINE
  5
4B3
330
1F
100
AcDbEntity
  8
0
  6
Continuous
 62
     7
370
    30
100
AcDbLine
 10
5.1077659838
 20
4.9259663706
 30
0.0
 11
5.1077659838
 21
4.4259664133
 31
0.0
  0
LINE
  5
4B4
330
1F
100
AcDbEntity
  8
0
  6
Continuous
 62
     7
370
    30
100
AcDbLine
 10
5.1227659788
 20
4.9259663706
 30
0.0
 11
5.1077659838
 21
4.9259663706
 31
0.0
  0
LINE
  5
4B5
330
1F
100
AcDbEntity
  8
0
  6
Continuous
 62
     7
370
    30
100
AcDbLine
 10
4.8357659751
 20
4.3919663927
 30
0.0
 11
4.3357659811
 21
4.3919663927
 31
0.0
  0
LINE
  5
4B6
330
1F
100
AcDbEntity
  8
0
  6
Continuous
 62
     7
370
    30
100
AcDbLine
 10
4.8357659751
 20
4.3769663794
 30
0.0
 11
4.8357659751
 21
4.3919663927
 31
0.0
  0
LINE
  5
4B7
330
1F
100
AcDbEntity
  8
0
  6
Continuous
 62
     7
370
    30
100
AcDbLine
 10
4.3357659811
 20
4.3919663927
 30
0.0
 11
4.3357659811
 21
4.3769663794
 31
0.0
  0
LINE
  5
4B8
330
1F
100
AcDbEntity
  8
0
  6
Continuous
 62
     7
370
    30
100
AcDbLine
 10
5.0547659835
 20
4.9419663458
 30
0.0
 11
5.0547659835
 21
5.0199664447
 31
0.0
  0
LINE
  5
4B9
330
1F
100
AcDbEntity
  8
0
  6
Continuous
 62
     7
370
    30
100
AcDbLine
 10
4.116765991
 20
4.9419663458
 30
0.0
 11
5.0547659835
 21
4.9419663458
 31
0.0
  0
LINE
  5
4BA
330
1F
100
AcDbEntity
  8
0
  6
Continuous
 62
     7
370
    30
100
AcDbLine
 10
4.116765991
 20
5.0199664447
 30
0.0
 11
4.116765991
 21
4.9419663458
 31
0.0
  0
LINE
  5
4BB
330
1F
100
AcDbEntity
  8
0
  6
Continuous
 62
     7
370
    30
100
AcDbLine
 10
4.116765991
 20
5.0199664447
 30
0.0
 11
5.0547659835
 21
5.0199664447
 31
0.0
  0
LINE
  5
4BC
330
1F
100
AcDbEntity
  8
0
  6
Continuous
 62
     7
370
    30
100
AcDbLine
 10
4.3357659811
 20
4.4259664133
 30
0.0
 11
4.3357659811
 21
4.3919663927
 31
0.0
  0
LINE
  5
4BD
330
1F
100
AcDbEntity
  8
0
  6
Continuous
 62
     7
370
    30
100
AcDbLine
 10
4.3357659811
 20
4.4259664133
 30
0.0
 11
4.0637659633
 21
4.4259664133
 31
0.0
  0
LINE
  5
4BE
330
1F
100
AcDbEntity
  8
0
  6
Continuous
 62
     7
370
    30
100
AcDbLine
 10
4.116765991
 20
4.9259663706
 30
0.0
 11
4.0637659633
 21
4.9259663706
 31
0.0
  0
LINE
  5
4BF
330
1F
100
AcDbEntity
  8
0
  6
Continuous
 62
     7
370
    30
100
AcDbLine
 10
4.116765991
 20
4.9419663458
 30
0.0
 11
4.116765991
 21
4.9259663706
 31
0.0
  0
LINE
  5
4C0
330
1F
100
AcDbEntity
  8
0
  6
Continuous
 62
     7
370
    30
100
AcDbLine
 10
5.0547659835
 20
4.9259663706
 30
0.0
 11
5.0547659835
 21
4.9419663458
 31
0.0
  0
LINE
  5
4C1
330
1F
100
AcDbEntity
  8
0
  6
Continuous
 62
     7
370
    30
100
AcDbLine
 10
5.0547659835
 20
4.9259663706
 30
0.0
 11
5.1077659838
 21
4.9259663706
 31
0.0
  0
LINE
  5
4C2
330
1F
100
AcDbEntity
  8
0
  6
Continuous
 62
     7
370
    30
100
AcDbLine
 10
5.1077659838
 20
4.4259664133
 30
0.0
 11
4.8357659751
 21
4.4259664133
 31
0.0
  0
LINE
  5
4C3
330
1F
100
AcDbEntity
  8
0
  6
Continuous
 62
     7
370
    30
100
AcDbLine
 10
4.8357659751
 20
4.4259664133
 30
0.0
 11
4.8357659751
 21
4.3919663927
 31
0.0
  0
LINE
  5
4C4
330
1F
100
AcDbEntity
  8
0
  6
Continuous
 62
     7
370
    30
100
AcDbLine
 10
5.5857659844
 20
4.3769663794
 30
0.0
 11
5.5857659844
 21
4.3139663671
 31
0.0
  0
LINE
  5
4C5
330
1F
100
AcDbEntity
  8
0
  6
Continuous
 62
     7
370
    30
100
AcDbLine
 10
6.0857659783
 20
4.3769663794
 30
0.0
 11
5.5857659844
 21
4.3769663794
 31
0.0
  0
LINE
  5
4C6
330
1F
100
AcDbEntity
  8
0
  6
Continuous
 62
     7
370
    30
100
AcDbLine
 10
6.0857659783
 20
4.3769663794
 30
0.0
 11
6.0857659783
 21
4.3139663671
 31
0.0
  0
LINE
  5
4C7
330
1F
100
AcDbEntity
  8
0
  6
Continuous
 62
     7
370
    30
100
AcDbLine
 10
6.0857659783
 20
4.3139663671
 30
0.0
 11
5.5857659844
 21
4.3139663671
 31
0.0
  0
LINE
  5
4C8
330
1F
100
AcDbEntity
  8
0
  6
Continuous
 62
     7
370
    30
100
AcDbLine
 10
5.2987659806
 20
4.9259663706
 30
0.0
 11
5.2987659806
 21
4.300966424
 31
0.0
  0
LINE
  5
4C9
330
1F
100
AcDbEntity
  8
0
  6
Continuous
 62
     7
370
    30
100
AcDbLine
 10
5.2987659806
 20
4.300966424
 30
0.0
 11
5.2357659799
 21
4.300966424
 31
0.0
  0
LINE
  5
4CA
330
1F
100
AcDbEntity
  8
0
  6
Continuous
 62
     7
370
    30
100
AcDbLine
 10
5.2987659806
 20
4.9259663706
 30
0.0
 11
5.2357659799
 21
4.9259663706
 31
0.0
  0
LINE
  5
4CB
330
1F
100
AcDbEntity
  8
0
  6
Continuous
 62
     7
370
    30
100
AcDbLine
 10
6.3727660095
 20
4.300966424
 30
0.0
 11
6.4357659484
 21
4.300966424
 31
0.0
  0
LINE
  5
4CC
330
1F
100
AcDbEntity
  8
0
  6
Continuous
 62
     7
370
    30
100
AcDbLine
 10
6.3727660095
 20
4.9259663706
 30
0.0
 11
6.4357659484
 21
4.9259663706
 31
0.0
  0
LINE
  5
4CD
330
1F
100
AcDbEntity
  8
0
  6
Continuous
 62
     7
370
    30
100
AcDbLine
 10
6.3727660095
 20
4.9259663706
 30
0.0
 11
6.3727660095
 21
4.300966424
 31
0.0
  0
LINE
  5
4CE
330
1F
100
AcDbEntity
  8
0
  6
Continuous
 62
     7
370
    30
100
AcDbLine
 10
5.3137659757
 20
4.4259664133
 30
0.0
 11
5.3137659757
 21
4.9259663706
 31
0.0
  0
LINE
  5
4CF
330
1F
100
AcDbEntity
  8
0
  6
Continuous
 62
     7
370
    30
100
AcDbLine
 10
5.2987659806
 20
4.4259664133
 30
0.0
 11
5.3137659757
 21
4.4259664133
 31
0.0
  0
LINE
  5
4D0
330
1F
100
AcDbEntity
  8
0
  6
Continuous
 62
     7
370
    30
100
AcDbLine
 10
5.3137659757
 20
4.9259663706
 30
0.0
 11
5.2987659806
 21
4.9259663706
 31
0.0
  0
LINE
  5
4D1
330
1F
100
AcDbEntity
  8
0
  6
Continuous
 62
     7
370
    30
100
AcDbLine
 10
6.3577659961
 20
4.4259664133
 30
0.0
 11
6.3727660095
 21
4.4259664133
 31
0.0
  0
LINE
  5
4D2
330
1F
100
AcDbEntity
  8
0
  6
Continuous
 62
     7
370
    30
100
AcDbLine
 10
6.3577659961
 20
4.9259663706
 30
0.0
 11
6.3577659961
 21
4.4259664133
 31
0.0
  0
LINE
  5
4D3
330
1F
100
AcDbEntity
  8
0
  6
Continuous
 62
     7
370
    30
100
AcDbLine
 10
6.3727660095
 20
4.9259663706
 30
0.0
 11
6.3577659961
 21
4.9259663706
 31
0.0
  0
LINE
  5
4D4
330
1F
100
AcDbEntity
  8
0
  6
Continuous
 62
     7
370
    30
100
AcDbLine
 10
6.0857659783
 20
4.3919663927
 30
0.0
 11
5.5857659844
 21
4.3919663927
 31
0.0
  0
LINE
  5
4D5
330
1F
100
AcDbEntity
  8
0
  6
Continuous
 62
     7
370
    30
100
AcDbLine
 10
6.0857659783
 20
4.3769663794
 30
0.0
 11
6.0857659783
 21
4.3919663927
 31
0.0
  0
LINE
  5
4D6
330
1F
100
AcDbEntity
  8
0
  6
Continuous
 62
     7
370
    30
100
AcDbLine
 10
5.5857659844
 20
4.3919663927
 30
0.0
 11
5.5857659844
 21
4.3769663794
 31
0.0
  0
LINE
  5
4D7
330
1F
100
AcDbEntity
  8
0
  6
Continuous
 62
     7
370
    30
100
AcDbLine
 10
6.3047659684
 20
4.9419663458
 30
0.0
 11
6.3047659684
 21
5.0199664447
 31
0.0
  0
LINE
  5
4D8
330
1F
100
AcDbEntity
  8
0
  6
Continuous
 62
     7
370
    30
100
AcDbLine
 10
5.3667659759
 20
4.9419663458
 30
0.0
 11
6.3047659684
 21
4.9419663458
 31
0.0
  0
LINE
  5
4D9
330
1F
100
AcDbEntity
  8
0
  6
Continuous
 62
     7
370
    30
100
AcDbLine
 10
5.3667659759
 20
5.0199664447
 30
0.0
 11
5.3667659759
 21
4.9419663458
 31
0.0
  0
LINE
  5
4DA
330
1F
100
AcDbEntity
  8
0
  6
Continuous
 62
     7
370
    30
100
AcDbLine
 10
5.3667659759
 20
5.0199664447
 30
0.0
 11
6.3047659684
 21
5.0199664447
 31
0.0
  0
LINE
  5
4DB
330
1F
100
AcDbEntity
  8
0
  6
Continuous
 62
     7
370
    30
100
AcDbLine
 10
5.5857659844
 20
4.4259664133
 30
0.0
 11
5.5857659844
 21
4.3919663927
 31
0.0
  0
LINE
  5
4DC
330
1F
100
AcDbEntity
  8
0
  6
Continuous
 62
     7
370
    30
100
AcDbLine
 10
5.5857659844
 20
4.4259664133
 30
0.0
 11
5.3137659757
 21
4.4259664133
 31
0.0
  0
LINE
  5
4DD
330
1F
100
AcDbEntity
  8
0
  6
Continuous
 62
     7
370
    30
100
AcDbLine
 10
5.3667659759
 20
4.9419663458
 30
0.0
 11
5.3667659759
 21
4.9259663706
 31
0.0
  0
LINE
  5
4DE
330
1F
100
AcDbEntity
  8
0
  6
Continuous
 62
     7
370
    30
100
AcDbLine
 10
6.3047659684
 20
4.9259663706
 30
0.0
 11
6.3047659684
 21
4.9419663458
 31
0.0
  0
LINE
  5
4DF
330
1F
100
AcDbEntity
  8
0
  6
Continuous
 62
     7
370
    30
100
AcDbLine
 10
6.3047659684
 20
4.9259663706
 30
0.0
 11
6.3577659961
 21
4.9259663706
 31
0.0
  0
LINE
  5
4E0
330
1F
100
AcDbEntity
  8
0
  6
Continuous
 62
     7
370
    30
100
AcDbLine
 10
6.3577659961
 20
4.4259664133
 30
0.0
 11
6.0857659783
 21
4.4259664133
 31
0.0
  0
LINE
  5
4E1
330
1F
100
AcDbEntity
  8
0
  6
Continuous
 62
     7
370
    30
100
AcDbLine
 10
6.0857659783
 20
4.4259664133
 30
0.0
 11
6.0857659783
 21
4.3919663927
 31
0.0
  0
LINE
  5
4E2
330
1F
100
AcDbEntity
  8
0
  6
Continuous
 62
     7
370
    30
100
AcDbLine
 10
5.3667659759
 20
4.9259663706
 30
0.0
 11
5.3137659757
 21
4.9259663706
 31
0.0
  0
LINE
  5
4E3
330
1F
100
AcDbEntity
  8
0
  6
Continuous
 62
     7
370
    30
100
AcDbLine
 10
7.3357660182
 20
4.3769663794
 30
0.0
 11
7.3357660182
 21
4.3139663671
 31
0.0
  0
LINE
  5
4E4
330
1F
100
AcDbEntity
  8
0
  6
Continuous
 62
     7
370
    30
100
AcDbLine
 10
7.3357660182
 20
4.3139663671
 30
0.0
 11
6.8357659143
 21
4.3139663671
 31
0.0
  0
LINE
  5
4E5
330
1F
100
AcDbEntity
  8
0
  6
Continuous
 62
     7
370
    30
100
AcDbLine
 10
7.3357660182
 20
4.3769663794
 30
0.0
 11
6.8357659143
 21
4.3769663794
 31
0.0
  0
LINE
  5
4E6
330
1F
100
AcDbEntity
  8
0
  6
Continuous
 62
     7
370
    30
100
AcDbLine
 10
6.8357659143
 20
4.3769663794
 30
0.0
 11
6.8357659143
 21
4.3139663671
 31
0.0
  0
LINE
  5
4E7
330
1F
100
AcDbEntity
  8
0
  6
Continuous
 62
     7
370
    30
100
AcDbLine
 10
6.5487660297
 20
4.9259663706
 30
0.0
 11
6.5487660297
 21
4.300966424
 31
0.0
  0
LINE
  5
4E8
330
1F
100
AcDbEntity
  8
0
  6
Continuous
 62
     7
370
    30
100
AcDbLine
 10
6.5487660297
 20
4.9259663706
 30
0.0
 11
6.4857659441
 21
4.9259663706
 31
0.0
  0
LINE
  5
4E9
330
1F
100
AcDbEntity
  8
0
  6
Continuous
 62
     7
370
    30
100
AcDbLine
 10
6.5487660297
 20
4.300966424
 30
0.0
 11
6.4857659441
 21
4.300966424
 31
0.0
  0
LINE
  5
4EA
330
1F
100
AcDbEntity
  8
0
  6
Continuous
 62
     7
370
    30
100
AcDbLine
 10
7.6227660494
 20
4.9259663706
 30
0.0
 11
7.6227660494
 21
4.300966424
 31
0.0
  0
LINE
  5
4EB
330
1F
100
AcDbEntity
  8
0
  6
Continuous
 62
     7
370
    30
100
AcDbLine
 10
7.6227660494
 20
4.9259663706
 30
0.0
 11
7.6857658416
 21
4.9259663706
 31
0.0
  0
LINE
  5
4EC
330
1F
100
AcDbEntity
  8
0
  6
Continuous
 62
     7
370
    30
100
AcDbLine
 10
7.6227660494
 20
4.300966424
 30
0.0
 11
7.6857658416
 21
4.300966424
 31
0.0
  0
LINE
  5
4ED
330
1F
100
AcDbEntity
  8
0
  6
Continuous
 62
     7
370
    30
100
AcDbLine
 10
6.5637660431
 20
4.4259664133
 30
0.0
 11
6.5637660431
 21
4.9259663706
 31
0.0
  0
LINE
  5
4EE
330
1F
100
AcDbEntity
  8
0
  6
Continuous
 62
     7
370
    30
100
AcDbLine
 10
6.5487660297
 20
4.4259664133
 30
0.0
 11
6.5637660431
 21
4.4259664133
 31
0.0
  0
LINE
  5
4EF
330
1F
100
AcDbEntity
  8
0
  6
Continuous
 62
     7
370
    30
100
AcDbLine
 10
6.5637660431
 20
4.9259663706
 30
0.0
 11
6.5487660297
 21
4.9259663706
 31
0.0
  0
LINE
  5
4F0
330
1F
100
AcDbEntity
  8
0
  6
Continuous
 62
     7
370
    30
100
AcDbLine
 10
7.607766036
 20
4.4259664133
 30
0.0
 11
7.6227660494
 21
4.4259664133
 31
0.0
  0
LINE
  5
4F1
330
1F
100
AcDbEntity
  8
0
  6
Continuous
 62
     7
370
    30
100
AcDbLine
 10
7.607766036
 20
4.9259663706
 30
0.0
 11
7.607766036
 21
4.4259664133
 31
0.0
  0
LINE
  5
4F2
330
1F
100
AcDbEntity
  8
0
  6
Continuous
 62
     7
370
    30
100
AcDbLine
 10
7.6227660494
 20
4.9259663706
 30
0.0
 11
7.607766036
 21
4.9259663706
 31
0.0
  0
LINE
  5
4F3
330
1F
100
AcDbEntity
  8
0
  6
Continuous
 62
     7
370
    30
100
AcDbLine
 10
7.3357660182
 20
4.3919663927
 30
0.0
 11
6.8357659143
 21
4.3919663927
 31
0.0
  0
LINE
  5
4F4
330
1F
100
AcDbEntity
  8
0
  6
Continuous
 62
     7
370
    30
100
AcDbLine
 10
7.3357660182
 20
4.3769663794
 30
0.0
 11
7.3357660182
 21
4.3919663927
 31
0.0
  0
LINE
  5
4F5
330
1F
100
AcDbEntity
  8
0
  6
Continuous
 62
     7
370
    30
100
AcDbLine
 10
6.8357659143
 20
4.3919663927
 30
0.0
 11
6.8357659143
 21
4.3769663794
 31
0.0
  0
LINE
  5
4F6
330
1F
100
AcDbEntity
  8
0
  6
Continuous
 62
     7
370
    30
100
AcDbLine
 10
7.5547660083
 20
4.9419663458
 30
0.0
 11
7.5547660083
 21
5.0199664447
 31
0.0
  0
LINE
  5
4F7
330
1F
100
AcDbEntity
  8
0
  6
Continuous
 62
     7
370
    30
100
AcDbLine
 10
6.6167659242
 20
4.9419663458
 30
0.0
 11
7.5547660083
 21
4.9419663458
 31
0.0
  0
LINE
  5
4F8
330
1F
100
AcDbEntity
  8
0
  6
Continuous
 62
     7
370
    30
100
AcDbLine
 10
6.6167659242
 20
5.0199664447
 30
0.0
 11
6.6167659242
 21
4.9419663458
 31
0.0
  0
LINE
  5
4F9
330
1F
100
AcDbEntity
  8
0
  6
Continuous
 62
     7
370
    30
100
AcDbLine
 10
6.6167659242
 20
5.0199664447
 30
0.0
 11
7.5547660083
 21
5.0199664447
 31
0.0
  0
LINE
  5
4FA
330
1F
100
AcDbEntity
  8
0
  6
Continuous
 62
     7
370
    30
100
AcDbLine
 10
6.8357659143
 20
4.4259664133
 30
0.0
 11
6.8357659143
 21
4.3919663927
 31
0.0
  0
LINE
  5
4FB
330
1F
100
AcDbEntity
  8
0
  6
Continuous
 62
     7
370
    30
100
AcDbLine
 10
6.8357659143
 20
4.4259664133
 30
0.0
 11
6.5637660431
 21
4.4259664133
 31
0.0
  0
LINE
  5
4FC
330
1F
100
AcDbEntity
  8
0
  6
Continuous
 62
     7
370
    30
100
AcDbLine
 10
6.6167659242
 20
4.9259663706
 30
0.0
 11
6.5637660431
 21
4.9259663706
 31
0.0
  0
LINE
  5
4FD
330
1F
100
AcDbEntity
  8
0
  6
Continuous
 62
     7
370
    30
100
AcDbLine
 10
6.6167659242
 20
4.9419663458
 30
0.0
 11
6.6167659242
 21
4.9259663706
 31
0.0
  0
LINE
  5
4FE
330
1F
100
AcDbEntity
  8
0
  6
Continuous
 62
     7
370
    30
100
AcDbLine
 10
7.5547660083
 20
4.9259663706
 30
0.0
 11
7.5547660083
 21
4.9419663458
 31
0.0
  0
LINE
  5
4FF
330
1F
100
AcDbEntity
  8
0
  6
Continuous
 62
     7
370
    30
100
AcDbLine
 10
7.5547660083
 20
4.9259663706
 30
0.0
 11
7.607766036
 21
4.9259663706
 31
0.0
  0
LINE
  5
500
330
1F
100
AcDbEntity
  8
0
  6
Continuous
 62
     7
370
    30
100
AcDbLine
 10
7.607766036
 20
4.4259664133
 30
0.0
 11
7.3357660182
 21
4.4259664133
 31
0.0
  0
LINE
  5
501
330
1F
100
AcDbEntity
  8
0
  6
Continuous
 62
     7
370
    30
100
AcDbLine
 10
7.3357660182
 20
4.4259664133
 30
0.0
 11
7.3357660182
 21
4.3919663927
 31
0.0
  0
LINE
  5
502
330
1F
100
AcDbEntity
  8
0
  6
Continuous
 62
     7
370
    30
100
AcDbLine
 10
3.0857659412
 20
4.3769663794
 30
0.0
 11
3.0857659412
 21
4.3139663671
 31
0.0
  0
LINE
  5
503
330
1F
100
AcDbEntity
  8
0
  6
Continuous
 62
     7
370
    30
100
AcDbLine
 10
3.5857660452
 20
4.3769663794
 30
0.0
 11
3.0857659412
 21
4.3769663794
 31
0.0
  0
LINE
  5
504
330
1F
100
AcDbEntity
  8
0
  6
Continuous
 62
     7
370
    30
100
AcDbLine
 10
3.5857660452
 20
4.3769663794
 30
0.0
 11
3.5857660452
 21
4.3139663671
 31
0.0
  0
LINE
  5
505
330
1F
100
AcDbEntity
  8
0
  6
Continuous
 62
     7
370
    30
100
AcDbLine
 10
3.5857660452
 20
4.3139663671
 30
0.0
 11
3.0857659412
 21
4.3139663671
 31
0.0
  0
LINE
  5
506
330
1F
100
AcDbEntity
  8
0
  6
Continuous
 62
     7
370
    30
100
AcDbLine
 10
2.79876591
 20
4.9259663706
 30
0.0
 11
2.79876591
 21
4.300966424
 31
0.0
  0
LINE
  5
507
330
1F
100
AcDbEntity
  8
0
  6
Continuous
 62
     7
370
    30
100
AcDbLine
 10
2.79876591
 20
4.300966424
 30
0.0
 11
2.7357661178
 21
4.300966424
 31
0.0
  0
LINE
  5
508
330
1F
100
AcDbEntity
  8
0
  6
Continuous
 62
     7
370
    30
100
AcDbLine
 10
2.79876591
 20
4.9259663706
 30
0.0
 11
2.7357661178
 21
4.9259663706
 31
0.0
  0
LINE
  5
509
330
1F
100
AcDbEntity
  8
0
  6
Continuous
 62
     7
370
    30
100
AcDbLine
 10
3.8727659297
 20
4.9259663706
 30
0.0
 11
3.8727659297
 21
4.300966424
 31
0.0
  0
LINE
  5
50A
330
1F
100
AcDbEntity
  8
0
  6
Continuous
 62
     7
370
    30
100
AcDbLine
 10
3.8727659297
 20
4.9259663706
 30
0.0
 11
3.9357660153
 21
4.9259663706
 31
0.0
  0
LINE
  5
50B
330
1F
100
AcDbEntity
  8
0
  6
Continuous
 62
     7
370
    30
100
AcDbLine
 10
3.8727659297
 20
4.300966424
 30
0.0
 11
3.9357660153
 21
4.300966424
 31
0.0
  0
LINE
  5
50C
330
1F
100
AcDbEntity
  8
0
  6
Continuous
 62
     7
370
    30
100
AcDbLine
 10
2.8137659234
 20
4.4259664133
 30
0.0
 11
2.8137659234
 21
4.9259663706
 31
0.0
  0
LINE
  5
50D
330
1F
100
AcDbEntity
  8
0
  6
Continuous
 62
     7
370
    30
100
AcDbLine
 10
2.79876591
 20
4.4259664133
 30
0.0
 11
2.8137659234
 21
4.4259664133
 31
0.0
  0
LINE
  5
50E
330
1F
100
AcDbEntity
  8
0
  6
Continuous
 62
     7
370
    30
100
AcDbLine
 10
2.8137659234
 20
4.9259663706
 30
0.0
 11
2.79876591
 21
4.9259663706
 31
0.0
  0
LINE
  5
50F
330
1F
100
AcDbEntity
  8
0
  6
Continuous
 62
     7
370
    30
100
AcDbLine
 10
3.8577659164
 20
4.4259664133
 30
0.0
 11
3.8727659297
 21
4.4259664133
 31
0.0
  0
LINE
  5
510
330
1F
100
AcDbEntity
  8
0
  6
Continuous
 62
     7
370
    30
100
AcDbLine
 10
3.8577659164
 20
4.9259663706
 30
0.0
 11
3.8577659164
 21
4.4259664133
 31
0.0
  0
LINE
  5
511
330
1F
100
AcDbEntity
  8
0
  6
Continuous
 62
     7
370
    30
100
AcDbLine
 10
3.8727659297
 20
4.9259663706
 30
0.0
 11
3.8577659164
 21
4.9259663706
 31
0.0
  0
LINE
  5
512
330
1F
100
AcDbEntity
  8
0
  6
Continuous
 62
     7
370
    30
100
AcDbLine
 10
3.5857660452
 20
4.3919663927
 30
0.0
 11
3.0857659412
 21
4.3919663927
 31
0.0
  0
LINE
  5
513
330
1F
100
AcDbEntity
  8
0
  6
Continuous
 62
     7
370
    30
100
AcDbLine
 10
3.5857660452
 20
4.3769663794
 30
0.0
 11
3.5857660452
 21
4.3919663927
 31
0.0
  0
LINE
  5
514
330
1F
100
AcDbEntity
  8
0
  6
Continuous
 62
     7
370
    30
100
AcDbLine
 10
3.0857659412
 20
4.3919663927
 30
0.0
 11
3.0857659412
 21
4.3769663794
 31
0.0
  0
LINE
  5
515
330
1F
100
AcDbEntity
  8
0
  6
Continuous
 62
     7
370
    30
100
AcDbLine
 10
3.8047660353
 20
4.9419663458
 30
0.0
 11
3.8047660353
 21
5.0199664447
 31
0.0
  0
LINE
  5
516
330
1F
100
AcDbEntity
  8
0
  6
Continuous
 62
     7
370
    30
100
AcDbLine
 10
2.8667659511
 20
4.9419663458
 30
0.0
 11
3.8047660353
 21
4.9419663458
 31
0.0
  0
LINE
  5
517
330
1F
100
AcDbEntity
  8
0
  6
Continuous
 62
     7
370
    30
100
AcDbLine
 10
2.8667659511
 20
5.0199664447
 30
0.0
 11
3.8047660353
 21
5.0199664447
 31
0.0
  0
LINE
  5
518
330
1F
100
AcDbEntity
  8
0
  6
Continuous
 62
     7
370
    30
100
AcDbLine
 10
2.8667659511
 20
5.0199664447
 30
0.0
 11
2.8667659511
 21
4.9419663458
 31
0.0
  0
LINE
  5
519
330
1F
100
AcDbEntity
  8
0
  6
Continuous
 62
     7
370
    30
100
AcDbLine
 10
3.0857659412
 20
4.4259664133
 30
0.0
 11
3.0857659412
 21
4.3919663927
 31
0.0
  0
LINE
  5
51A
330
1F
100
AcDbEntity
  8
0
  6
Continuous
 62
     7
370
    30
100
AcDbLine
 10
3.0857659412
 20
4.4259664133
 30
0.0
 11
2.8137659234
 21
4.4259664133
 31
0.0
  0
LINE
  5
51B
330
1F
100
AcDbEntity
  8
0
  6
Continuous
 62
     7
370
    30
100
AcDbLine
 10
2.8667659511
 20
4.9419663458
 30
0.0
 11
2.8667659511
 21
4.9259663706
 31
0.0
  0
LINE
  5
51C
330
1F
100
AcDbEntity
  8
0
  6
Continuous
 62
     7
370
    30
100
AcDbLine
 10
3.8047660353
 20
4.9259663706
 30
0.0
 11
3.8047660353
 21
4.9419663458
 31
0.0
  0
LINE
  5
51D
330
1F
100
AcDbEntity
  8
0
  6
Continuous
 62
     7
370
    30
100
AcDbLine
 10
3.8047660353
 20
4.9259663706
 30
0.0
 11
3.8577659164
 21
4.9259663706
 31
0.0
  0
LINE
  5
51E
330
1F
100
AcDbEntity
  8
0
  6
Continuous
 62
     7
370
    30
100
AcDbLine
 10
3.8577659164
 20
4.4259664133
 30
0.0
 11
3.5857660452
 21
4.4259664133
 31
0.0
  0
LINE
  5
51F
330
1F
100
AcDbEntity
  8
0
  6
Continuous
 62
     7
370
    30
100
AcDbLine
 10
3.5857660452
 20
4.4259664133
 30
0.0
 11
3.5857660452
 21
4.3919663927
 31
0.0
  0
LINE
  5
520
330
1F
100
AcDbEntity
  8
0
  6
Continuous
 62
     7
370
    30
100
AcDbLine
 10
2.8667659511
 20
4.9259663706
 30
0.0
 11
2.8137659234
 21
4.9259663706
 31
0.0
  0
ARC
  5
521
330
1F
100
AcDbEntity
  8
0
  6
Continuous
 62
     7
370
    30
100
AcDbCircle
 10
3.5182659797
 20
4.1759663963
 30
0.0
 40
0.0250000000000012
100
AcDbArc
 50
90.0
 51
285.0
  0
LINE
  5
522
330
1F
100
AcDbEntity
  8
0
  6
Continuous
 62
     7
370
    30
100
AcDbLine
 10
3.5507659162
 20
4.2009664325
 30
0.0
 11
3.518265985
 21
4.2009664325
 31
0.0
  0
ARC
  5
523
330
1F
100
AcDbEntity
  8
0
  6
Continuous
 62
     7
370
    30
100
AcDbCircle
 10
3.5507659797
 20
4.2819663963
 30
0.0
 40
0.0810000000000006
100
AcDbArc
 50
270.0
 51
64.3991730166
  0
ARC
  5
524
330
1F
100
AcDbEntity
  8
0
  6
Continuous
 62
     7
370
    30
100
AcDbCircle
 10
3.1532659797
 20
4.1759663963
 30
0.0
 40
0.025000000000002
100
AcDbArc
 50
255.0
 51
90.0
  0
LINE
  5
525
330
1F
100
AcDbEntity
  8
0
  6
Continuous
 62
     7
370
    30
100
AcDbLine
 10
3.101397054
 20
4.1639827331
 30
0.0
 11
3.1467954362
 21
4.151818267
 31
0.0
  0
LINE
  5
526
330
1F
100
AcDbEntity
  8
0
  6
Continuous
 62
     7
370
    30
100
AcDbLine
 10
3.101397054
 20
4.1639827331
 30
0.0
 11
3.1045028315
 21
4.1755738859
 31
0.0
  0
LINE
  5
527
330
1F
100
AcDbEntity
  8
0
  6
Continuous
 62
     7
370
    30
100
AcDbLine
 10
3.1045028315
 20
4.1755738859
 30
0.0
 11
3.1499013603
 21
4.1634093464
 31
0.0
  0
ARC
  5
528
330
1F
100
AcDbEntity
  8
0
  6
Continuous
 62
     7
370
    30
100
AcDbCircle
 10
3.1532659797
 20
4.1759663963
 30
0.0
 40
0.0130000000000009
100
AcDbArc
 50
255.0
 51
90.0
  0
LINE
  5
529
330
1F
100
AcDbEntity
  8
0
  6
Continuous
 62
     7
370
    30
100
AcDbLine
 10
3.1532660015
 20
4.1889663778
 30
0.0
 11
3.1207659236
 21
4.1889663778
 31
0.0
  0
ARC
  5
52A
330
1F
100
AcDbEntity
  8
0
  6
Continuous
 62
     7
370
    30
100
AcDbCircle
 10
3.1207659797
 20
4.2819663963
 30
0.0
 40
0.0930000000000009
100
AcDbArc
 50
112.1074099445
 51
270.0
  0
ARC
  5
52B
330
1F
100
AcDbEntity
  8
0
  6
Continuous
 62
     7
370
    30
100
AcDbCircle
 10
3.5507659797
 20
4.2819663963
 30
0.0
 40
0.0930000000000009
100
AcDbArc
 50
270.0
 51
67.8925900555
  0
LINE
  5
52C
330
1F
100
AcDbEntity
  8
0
  6
Continuous
 62
     7
370
    30
100
AcDbLine
 10
3.5507659162
 20
4.1889663778
 30
0.0
 11
3.518265985
 21
4.1889663778
 31
0.0
  0
ARC
  5
52D
330
1F
100
AcDbEntity
  8
0
  6
Continuous
 62
     7
370
    30
100
AcDbCircle
 10
3.5182659797
 20
4.1759663963
 30
0.0
 40
0.0130000000000026
100
AcDbArc
 50
90.0
 51
285.0
  0
LINE
  5
52E
330
1F
100
AcDbEntity
  8
0
  6
Continuous
 62
     7
370
    30
100
AcDbLine
 10
3.5216306261
 20
4.1634093464
 30
0.0
 11
3.567029155
 21
4.1755738859
 31
0.0
  0
LINE
  5
52F
330
1F
100
AcDbEntity
  8
0
  6
Continuous
 62
     7
370
    30
100
AcDbLine
 10
3.567029155
 20
4.1755738859
 30
0.0
 11
3.5701349324
 21
4.1639827331
 31
0.0
  0
LINE
  5
530
330
1F
100
AcDbEntity
  8
0
  6
Continuous
 62
     7
370
    30
100
AcDbLine
 10
3.5247364035
 20
4.151818267
 30
0.0
 11
3.5701349324
 21
4.1639827331
 31
0.0
  0
ARC
  5
531
330
1F
100
AcDbEntity
  8
0
  6
Continuous
 62
     7
370
    30
100
AcDbCircle
 10
3.1207659797
 20
4.2819663963
 30
0.0
 40
0.0810000000000004
100
AcDbArc
 50
115.6008269834
 51
270.0
  0
LINE
  5
532
330
1F
100
AcDbEntity
  8
0
  6
Continuous
 62
     7
370
    30
100
AcDbLine
 10
3.1532660015
 20
4.2009664325
 30
0.0
 11
3.1207659236
 21
4.2009664325
 31
0.0
  0
ARC
  5
533
330
1F
100
AcDbEntity
  8
0
  6
Continuous
 62
     7
370
    30
100
AcDbCircle
 10
7.2682659797
 20
4.1759663963
 30
0.0
 40
0.0250000000000004
100
AcDbArc
 50
90.0
 51
285.0
  0
LINE
  5
534
330
1F
100
AcDbEntity
  8
0
  6
Continuous
 62
     7
370
    30
100
AcDbLine
 10
7.3007660359
 20
4.2009664325
 30
0.0
 11
7.268265958
 21
4.2009664325
 31
0.0
  0
ARC
  5
535
330
1F
100
AcDbEntity
  8
0
  6
Continuous
 62
     7
370
    30
100
AcDbCircle
 10
7.3007659797
 20
4.2819663963
 30
0.0
 40
0.0810000000000004
100
AcDbArc
 50
270.0
 51
64.3991729432
  0
ARC
  5
536
330
1F
100
AcDbEntity
  8
0
  6
Continuous
 62
     7
370
    30
100
AcDbCircle
 10
6.9032659797
 20
4.1759663963
 30
0.0
 40
0.0250000000000021
100
AcDbArc
 50
255.0
 51
90.0
  0
LINE
  5
537
330
1F
100
AcDbEntity
  8
0
  6
Continuous
 62
     7
370
    30
100
AcDbLine
 10
6.851397027
 20
4.1639827331
 30
0.0
 11
6.8967955559
 21
4.151818267
 31
0.0
  0
LINE
  5
538
330
1F
100
AcDbEntity
  8
0
  6
Continuous
 62
     7
370
    30
100
AcDbLine
 10
6.851397027
 20
4.1639827331
 30
0.0
 11
6.8545028045
 21
4.1755738859
 31
0.0
  0
LINE
  5
539
330
1F
100
AcDbEntity
  8
0
  6
Continuous
 62
     7
370
    30
100
AcDbLine
 10
6.8545028045
 20
4.1755738859
 30
0.0
 11
6.8999013334
 21
4.1634093464
 31
0.0
  0
ARC
  5
53A
330
1F
100
AcDbEntity
  8
0
  6
Continuous
 62
     7
370
    30
100
AcDbCircle
 10
6.9032659797
 20
4.1759663963
 30
0.0
 40
0.0130000000000002
100
AcDbArc
 50
255.0
 51
90.0
  0
LINE
  5
53B
330
1F
100
AcDbEntity
  8
0
  6
Continuous
 62
     7
370
    30
100
AcDbLine
 10
6.9032659745
 20
4.1889663778
 30
0.0
 11
6.8707660433
 21
4.1889663778
 31
0.0
  0
ARC
  5
53C
330
1F
100
AcDbEntity
  8
0
  6
Continuous
 62
     7
370
    30
100
AcDbCircle
 10
6.8707659797
 20
4.2819663963
 30
0.0
 40
0.0930000000000009
100
AcDbArc
 50
112.1074098823
 51
270.0
  0
ARC
  5
53D
330
1F
100
AcDbEntity
  8
0
  6
Continuous
 62
     7
370
    30
100
AcDbCircle
 10
7.3007659797
 20
4.2819663963
 30
0.0
 40
0.0930000000000017
100
AcDbArc
 50
270.0
 51
67.8925899933
  0
LINE
  5
53E
330
1F
100
AcDbEntity
  8
0
  6
Continuous
 62
     7
370
    30
100
AcDbLine
 10
7.3007660359
 20
4.1889663778
 30
0.0
 11
7.268265958
 21
4.1889663778
 31
0.0
  0
ARC
  5
53F
330
1F
100
AcDbEntity
  8
0
  6
Continuous
 62
     7
370
    30
100
AcDbCircle
 10
7.2682659797
 20
4.1759663963
 30
0.0
 40
0.0130000000000017
100
AcDbArc
 50
90.0
 51
285.0
  0
LINE
  5
540
330
1F
100
AcDbEntity
  8
0
  6
Continuous
 62
     7
370
    30
100
AcDbLine
 10
7.2716305991
 20
4.1634093464
 30
0.0
 11
7.317029128
 21
4.1755738859
 31
0.0
  0
LINE
  5
541
330
1F
100
AcDbEntity
  8
0
  6
Continuous
 62
     7
370
    30
100
AcDbLine
 10
7.317029128
 20
4.1755738859
 30
0.0
 11
7.3201349054
 21
4.1639827331
 31
0.0
  0
LINE
  5
542
330
1F
100
AcDbEntity
  8
0
  6
Continuous
 62
     7
370
    30
100
AcDbLine
 10
7.2747365232
 20
4.151818267
 30
0.0
 11
7.3201349054
 21
4.1639827331
 31
0.0
  0
LINE
  5
543
330
1F
100
AcDbEntity
  8
0
  6
Continuous
 62
     7
370
    30
100
AcDbLine
 10
6.9032659745
 20
4.2009664325
 30
0.0
 11
6.8707660433
 21
4.2009664325
 31
0.0
  0
ARC
  5
544
330
1F
100
AcDbEntity
  8
0
  6
Continuous
 62
     7
370
    30
100
AcDbCircle
 10
6.8707659797
 20
4.2819663963
 30
0.0
 40
0.0810000000000004
100
AcDbArc
 50
115.6008269101
 51
270.0
  0
ARC
  5
545
330
1F
100
AcDbEntity
  8
0
  6
Continuous
 62
     7
370
    30
100
AcDbCircle
 10
6.0182659797
 20
4.1759663963
 30
0.0
 40
0.0250000000000012
100
AcDbArc
 50
90.0
 51
285.0
  0
LINE
  5
546
330
1F
100
AcDbEntity
  8
0
  6
Continuous
 62
     7
370
    30
100
AcDbLine
 10
6.050765996
 20
4.2009664325
 30
0.0
 11
6.0182659914
 21
4.2009664325
 31
0.0
  0
ARC
  5
547
330
1F
100
AcDbEntity
  8
0
  6
Continuous
 62
     7
370
    30
100
AcDbCircle
 10
6.0507659797
 20
4.2819663963
 30
0.0
 40
0.0810000000000004
100
AcDbArc
 50
270.0
 51
64.3991729432
  0
LINE
  5
548
330
1F
100
AcDbEntity
  8
0
  6
Continuous
 62
     7
370
    30
100
AcDbLine
 10
5.6013969871
 20
4.1639827331
 30
0.0
 11
5.646795516
 21
4.151818267
 31
0.0
  0
LINE
  5
549
330
1F
100
AcDbEntity
  8
0
  6
Continuous
 62
     7
370
    30
100
AcDbLine
 10
5.6013969871
 20
4.1639827331
 30
0.0
 11
5.6045028012
 21
4.1755738859
 31
0.0
  0
LINE
  5
54A
330
1F
100
AcDbEntity
  8
0
  6
Continuous
 62
     7
370
    30
100
AcDbLine
 10
5.6045028012
 20
4.1755738859
 30
0.0
 11
5.6499013301
 21
4.1634093464
 31
0.0
  0
ARC
  5
54B
330
1F
100
AcDbEntity
  8
0
  6
Continuous
 62
     7
370
    30
100
AcDbCircle
 10
5.6532659797
 20
4.1759663963
 30
0.0
 40
0.0130000000000002
100
AcDbArc
 50
255.0
 51
90.0
  0
LINE
  5
54C
330
1F
100
AcDbEntity
  8
0
  6
Continuous
 62
     7
370
    30
100
AcDbLine
 10
5.6532659713
 20
4.1889663778
 30
0.0
 11
5.6207659667
 21
4.1889663778
 31
0.0
  0
ARC
  5
54D
330
1F
100
AcDbEntity
  8
0
  6
Continuous
 62
     7
370
    30
100
AcDbCircle
 10
5.6207659797
 20
4.2819663963
 30
0.0
 40
0.0930000000000017
100
AcDbArc
 50
112.1074098823
 51
270.0
  0
ARC
  5
54E
330
1F
100
AcDbEntity
  8
0
  6
Continuous
 62
     7
370
    30
100
AcDbCircle
 10
6.0507659797
 20
4.2819663963
 30
0.0
 40
0.0930000000000017
100
AcDbArc
 50
270.0
 51
67.8925899933
  0
LINE
  5
54F
330
1F
100
AcDbEntity
  8
0
  6
Continuous
 62
     7
370
    30
100
AcDbLine
 10
6.050765996
 20
4.1889663778
 30
0.0
 11
6.0182659914
 21
4.1889663778
 31
0.0
  0
ARC
  5
550
330
1F
100
AcDbEntity
  8
0
  6
Continuous
 62
     7
370
    30
100
AcDbCircle
 10
6.0182659797
 20
4.1759663963
 30
0.0
 40
0.0130000000000026
100
AcDbArc
 50
90.0
 51
285.0
  0
LINE
  5
551
330
1F
100
AcDbEntity
  8
0
  6
Continuous
 62
     7
370
    30
100
AcDbLine
 10
6.0216306325
 20
4.1634093464
 30
0.0
 11
6.0670291614
 21
4.1755738859
 31
0.0
  0
LINE
  5
552
330
1F
100
AcDbEntity
  8
0
  6
Continuous
 62
     7
370
    30
100
AcDbLine
 10
6.0670291614
 20
4.1755738859
 30
0.0
 11
6.0701349389
 21
4.1639827331
 31
0.0
  0
LINE
  5
553
330
1F
100
AcDbEntity
  8
0
  6
Continuous
 62
     7
370
    30
100
AcDbLine
 10
6.0247364833
 20
4.151818267
 30
0.0
 11
6.0701349389
 21
4.1639827331
 31
0.0
  0
ARC
  5
554
330
1F
100
AcDbEntity
  8
0
  6
Continuous
 62
     7
370
    30
100
AcDbCircle
 10
5.6207659797
 20
4.2819663963
 30
0.0
 40
0.0810000000000004
100
AcDbArc
 50
115.6008269101
 51
270.0
  0
ARC
  5
555
330
1F
100
AcDbEntity
  8
0
  6
Continuous
 62
     7
370
    30
100
AcDbCircle
 10
5.6532659797
 20
4.1759663963
 30
0.0
 40
0.0250000000000021
100
AcDbArc
 50
255.0
 51
90.0
  0
LINE
  5
556
330
1F
100
AcDbEntity
  8
0
  6
Continuous
 62
     7
370
    30
100
AcDbLine
 10
5.6532659713
 20
4.2009664325
 30
0.0
 11
5.6207659667
 21
4.2009664325
 31
0.0
  0
ARC
  5
557
330
1F
100
AcDbEntity
  8
0
  6
Continuous
 62
     7
370
    30
100
AcDbCircle
 10
4.7682659797
 20
4.1759663963
 30
0.0
 40
0.0250000000000012
100
AcDbArc
 50
90.0
 51
285.0
  0
LINE
  5
558
330
1F
100
AcDbEntity
  8
0
  6
Continuous
 62
     7
370
    30
100
AcDbLine
 10
4.8007659927
 20
4.2009664325
 30
0.0
 11
4.7682659882
 21
4.2009664325
 31
0.0
  0
ARC
  5
559
330
1F
100
AcDbEntity
  8
0
  6
Continuous
 62
     7
370
    30
100
AcDbCircle
 10
4.8007659797
 20
4.2819663963
 30
0.0
 40
0.0810000000000004
100
AcDbArc
 50
270.0
 51
64.3991729432
  0
ARC
  5
55A
330
1F
100
AcDbEntity
  8
0
  6
Continuous
 62
     7
370
    30
100
AcDbCircle
 10
4.3707659797
 20
4.2819663963
 30
0.0
 40
0.0810000000000004
100
AcDbArc
 50
115.6008269101
 51
270.0
  0
LINE
  5
55B
330
1F
100
AcDbEntity
  8
0
  6
Continuous
 62
     7
370
    30
100
AcDbLine
 10
4.403265968
 20
4.2009664325
 30
0.0
 11
4.3707659635
 21
4.2009664325
 31
0.0
  0
ARC
  5
55C
330
1F
100
AcDbEntity
  8
0
  6
Continuous
 62
     7
370
    30
100
AcDbCircle
 10
4.4032659797
 20
4.1759663963
 30
0.0
 40
0.0250000000000012
100
AcDbArc
 50
255.0
 51
90.0
  0
LINE
  5
55D
330
1F
100
AcDbEntity
  8
0
  6
Continuous
 62
     7
370
    30
100
AcDbLine
 10
4.3513970206
 20
4.1639827331
 30
0.0
 11
4.3967954761
 21
4.151818267
 31
0.0
  0
LINE
  5
55E
330
1F
100
AcDbEntity
  8
0
  6
Continuous
 62
     7
370
    30
100
AcDbLine
 10
4.3513970206
 20
4.1639827331
 30
0.0
 11
4.354502798
 21
4.1755738859
 31
0.0
  0
LINE
  5
55F
330
1F
100
AcDbEntity
  8
0
  6
Continuous
 62
     7
370
    30
100
AcDbLine
 10
4.354502798
 20
4.1755738859
 30
0.0
 11
4.3999013269
 21
4.1634093464
 31
0.0
  0
ARC
  5
560
330
1F
100
AcDbEntity
  8
0
  6
Continuous
 62
     7
370
    30
100
AcDbCircle
 10
4.4032659797
 20
4.1759663963
 30
0.0
 40
0.0130000000000002
100
AcDbArc
 50
255.0
 51
90.0
  0
LINE
  5
561
330
1F
100
AcDbEntity
  8
0
  6
Continuous
 62
     7
370
    30
100
AcDbLine
 10
4.403265968
 20
4.1889663778
 30
0.0
 11
4.3707659635
 21
4.1889663778
 31
0.0
  0
ARC
  5
562
330
1F
100
AcDbEntity
  8
0
  6
Continuous
 62
     7
370
    30
100
AcDbCircle
 10
4.3707659797
 20
4.2819663963
 30
0.0
 40
0.0930000000000009
100
AcDbArc
 50
112.1074098823
 51
270.0
  0
ARC
  5
563
330
1F
100
AcDbEntity
  8
0
  6
Continuous
 62
     7
370
    30
100
AcDbCircle
 10
4.8007659797
 20
4.2819663963
 30
0.0
 40
0.0930000000000009
100
AcDbArc
 50
270.0
 51
67.8925899933
  0
LINE
  5
564
330
1F
100
AcDbEntity
  8
0
  6
Continuous
 62
     7
370
    30
100
AcDbLine
 10
4.8007659927
 20
4.1889663778
 30
0.0
 11
4.7682659882
 21
4.1889663778
 31
0.0
  0
ARC
  5
565
330
1F
100
AcDbEntity
  8
0
  6
Continuous
 62
     7
370
    30
100
AcDbCircle
 10
4.7682659797
 20
4.1759663963
 30
0.0
 40
0.0130000000000026
100
AcDbArc
 50
90.0
 51
285.0
  0
LINE
  5
566
330
1F
100
AcDbEntity
  8
0
  6
Continuous
 62
     7
370
    30
100
AcDbLine
 10
4.7716306293
 20
4.1634093464
 30
0.0
 11
4.8170291582
 21
4.1755738859
 31
0.0
  0
LINE
  5
567
330
1F
100
AcDbEntity
  8
0
  6
Continuous
 62
     7
370
    30
100
AcDbLine
 10
4.8170291582
 20
4.1755738859
 30
0.0
 11
4.8201349723
 21
4.1639827331
 31
0.0
  0
LINE
  5
568
330
1F
100
AcDbEntity
  8
0
  6
Continuous
 62
     7
370
    30
100
AcDbLine
 10
4.7747364434
 20
4.151818267
 30
0.0
 11
4.8201349723
 21
4.1639827331
 31
0.0
  0
ARC
  5
569
330
1F
100
AcDbEntity
  8
0
  6
Continuous
 62
     7
370
    30
100
AcDbCircle
 10
3.0188197879
 20
3.6915512514
 30
0.0
 40
0.0450000000000002
100
AcDbArc
 50
116.7854683781
 51
188.0229869069
  0
ARC
  5
56A
330
1F
100
AcDbEntity
  8
0
  6
Continuous
 62
     7
370
    30
100
AcDbCircle
 10
3.2777659797
 20
3.4139663963
 30
0.0
 40
0.032
100
AcDbArc
 50
261.1501169016
 51
0.0
  0
LINE
  5
56B
330
1F
100
AcDbEntity
  8
0
  6
Continuous
 62
     7
370
    30
100
AcDbLine
 10
3.1277659494
 20
3.9709664228
 30
0.0
 11
3.1277659494
 21
4.0887870151
 31
0.0
  0
LINE
  5
56C
330
1F
100
AcDbEntity
  8
0
  6
Continuous
 62
     7
370
    30
100
AcDbLine
 10
3.1457659948
 20
3.9709664228
 30
0.0
 11
3.1457659948
 21
4.0887870151
 31
0.0
  0
ARC
  5
56D
330
1F
100
AcDbEntity
  8
0
  6
Continuous
 62
     7
370
    30
100
AcDbCircle
 10
3.0188197879
 20
3.6915512514
 30
0.0
 40
0.0630000000000005
100
AcDbArc
 50
116.7854683781
 51
188.0229869069
  0
ARC
  5
56E
330
1F
100
AcDbEntity
  8
0
  6
Continuous
 62
     7
370
    30
100
AcDbCircle
 10
3.1277659797
 20
4.1759663963
 30
0.0
 40
0.0685000000000002
100
AcDbArc
 50
299.8355602232
 51
110.0
  0
LINE
  5
56F
330
1F
100
AcDbEntity
  8
0
  6
Continuous
 62
     7
370
    30
100
AcDbLine
 10
3.3097660336
 20
3.5439663889
 30
0.0
 11
3.3277659323
 21
3.5439663889
 31
0.0
  0
ARC
  5
570
330
1F
100
AcDbEntity
  8
0
  6
Continuous
 62
     7
370
    30
100
AcDbCircle
 10
3.1777659797
 20
4.0887869836
 30
0.0
 40
0.0500000000000003
100
AcDbArc
 50
119.8355602232
 51
180.0
  0
ARC
  5
571
330
1F
100
AcDbEntity
  8
0
  6
Continuous
 62
     7
370
    30
100
AcDbCircle
 10
3.1277659797
 20
4.1759663963
 30
0.0
 40
0.0505000000000004
100
AcDbArc
 50
299.8355602232
 51
110.0
  0
ARC
  5
572
330
1F
100
AcDbEntity
  8
0
  6
Continuous
 62
     7
370
    30
100
AcDbCircle
 10
2.8777659797
 20
3.9709663963
 30
0.0
 40
0.25
100
AcDbArc
 50
296.7854683781
 51
0.0
  0
LINE
  5
573
330
1F
100
AcDbEntity
  8
0
  6
Continuous
 62
     7
370
    30
100
AcDbLine
 10
3.1104939489
 20
4.2234208398
 30
0.0
 11
3.10433754
 21
4.2403353444
 31
0.0
  0
LINE
  5
574
330
1F
100
AcDbEntity
  8
0
  6
Continuous
 62
     7
370
    30
100
AcDbLine
 10
3.3097660336
 20
3.5439663889
 30
0.0
 11
3.3097660336
 21
3.413966389
 31
0.0
  0
ARC
  5
575
330
1F
100
AcDbEntity
  8
0
  6
Continuous
 62
     7
370
    30
100
AcDbCircle
 10
3.2777659797
 20
3.4139663963
 30
0.0
 40
0.0499999999999999
100
AcDbArc
 50
261.1501169016
 51
0.0
  0
ARC
  5
576
330
1F
100
AcDbEntity
  8
0
  6
Continuous
 62
     7
370
    30
100
AcDbCircle
 10
3.3277659797
 20
3.7350972108
 30
0.0
 40
0.3750000000000001
100
AcDbArc
 50
188.0229869069
 51
261.1501169016
  0
ARC
  5
577
330
1F
100
AcDbEntity
  8
0
  6
Continuous
 62
     7
370
    30
100
AcDbCircle
 10
3.3277659797
 20
3.7350972108
 30
0.0
 40
0.3569999999999998
100
AcDbArc
 50
188.0229869069
 51
261.1501169016
  0
ARC
  5
578
330
1F
100
AcDbEntity
  8
0
  6
Continuous
 62
     7
370
    30
100
AcDbCircle
 10
2.8777659797
 20
3.9709663963
 30
0.0
 40
0.2680000000000002
100
AcDbArc
 50
296.7854683781
 51
0.0
  0
LINE
  5
579
330
1F
100
AcDbEntity
  8
0
  6
Continuous
 62
     7
370
    30
100
AcDbLine
 10
3.3277659323
 20
3.5439663889
 30
0.0
 11
3.3277659323
 21
3.413966389
 31
0.0
  0
ARC
  5
57A
330
1F
100
AcDbEntity
  8
0
  6
Continuous
 62
     7
370
    30
100
AcDbCircle
 10
3.1777659797
 20
4.0887869836
 30
0.0
 40
0.0320000000000002
100
AcDbArc
 50
119.8355602232
 51
180.0
  0
ARC
  5
57B
330
1F
100
AcDbEntity
  8
0
  6
Continuous
 62
     7
370
    30
100
AcDbCircle
 10
6.9277659797
 20
4.0887869836
 30
0.0
 40
0.0320000000000009
100
AcDbArc
 50
119.8355602232
 51
180.0
  0
ARC
  5
57C
330
1F
100
AcDbEntity
  8
0
  6
Continuous
 62
     7
370
    30
100
AcDbCircle
 10
6.6277659797
 20
3.9709663963
 30
0.0
 40
0.268
100
AcDbArc
 50
296.7854683781
 51
0.0
  0
ARC
  5
57D
330
1F
100
AcDbEntity
  8
0
  6
Continuous
 62
     7
370
    30
100
AcDbCircle
 10
6.7688197879
 20
3.6915512514
 30
0.0
 40
0.0450000000000003
100
AcDbArc
 50
116.7854683781
 51
188.0229869069
  0
ARC
  5
57E
330
1F
100
AcDbEntity
  8
0
  6
Continuous
 62
     7
370
    30
100
AcDbCircle
 10
7.0777659797
 20
3.7350972108
 30
0.0
 40
0.3569999999999998
100
AcDbArc
 50
188.0229869069
 51
261.1501169016
  0
LINE
  5
57F
330
1F
100
AcDbEntity
  8
0
  6
Continuous
 62
     7
370
    30
100
AcDbLine
 10
7.0597660066
 20
3.5439663889
 30
0.0
 11
7.0597660066
 21
3.413966389
 31
0.0
  0
LINE
  5
580
330
1F
100
AcDbEntity
  8
0
  6
Continuous
 62
     7
370
    30
100
AcDbLine
 10
7.0597660066
 20
3.5439663889
 30
0.0
 11
7.077766052
 21
3.5439663889
 31
0.0
  0
ARC
  5
581
330
1F
100
AcDbEntity
  8
0
  6
Continuous
 62
     7
370
    30
100
AcDbCircle
 10
7.0277659797
 20
3.4139663963
 30
0.0
 40
0.0500000000000004
100
AcDbArc
 50
261.1501169016
 51
0.0
  0
ARC
  5
582
330
1F
100
AcDbEntity
  8
0
  6
Continuous
 62
     7
370
    30
100
AcDbCircle
 10
7.0777659797
 20
3.7350972108
 30
0.0
 40
0.3750000000000001
100
AcDbArc
 50
188.0229869069
 51
261.1501169016
  0
ARC
  5
583
330
1F
100
AcDbEntity
  8
0
  6
Continuous
 62
     7
370
    30
100
AcDbCircle
 10
6.7688197879
 20
3.6915512514
 30
0.0
 40
0.0630000000000005
100
AcDbArc
 50
116.7854683781
 51
188.0229869069
  0
ARC
  5
584
330
1F
100
AcDbEntity
  8
0
  6
Continuous
 62
     7
370
    30
100
AcDbCircle
 10
6.6277659797
 20
3.9709663963
 30
0.0
 40
0.25
100
AcDbArc
 50
296.7854683781
 51
0.0
  0
LINE
  5
585
330
1F
100
AcDbEntity
  8
0
  6
Continuous
 62
     7
370
    30
100
AcDbLine
 10
6.8777659224
 20
3.9709664228
 30
0.0
 11
6.8777659224
 21
4.0887870151
 31
0.0
  0
ARC
  5
586
330
1F
100
AcDbEntity
  8
0
  6
Continuous
 62
     7
370
    30
100
AcDbCircle
 10
6.8777659797
 20
4.1759663963
 30
0.0
 40
0.0505000000000007
100
AcDbArc
 50
299.8355602232
 51
110.0
  0
LINE
  5
587
330
1F
100
AcDbEntity
  8
0
  6
Continuous
 62
     7
370
    30
100
AcDbLine
 10
6.8604939219
 20
4.2234208398
 30
0.0
 11
6.8543376597
 21
4.2403353444
 31
0.0
  0
ARC
  5
588
330
1F
100
AcDbEntity
  8
0
  6
Continuous
 62
     7
370
    30
100
AcDbCircle
 10
6.8777659797
 20
4.1759663963
 30
0.0
 40
0.0685000000000007
100
AcDbArc
 50
299.8355602232
 51
110.0
  0
LINE
  5
589
330
1F
100
AcDbEntity
  8
0
  6
Continuous
 62
     7
370
    30
100
AcDbLine
 10
7.077766052
 20
3.5439663889
 30
0.0
 11
7.077766052
 21
3.413966389
 31
0.0
  0
ARC
  5
58A
330
1F
100
AcDbEntity
  8
0
  6
Continuous
 62
     7
370
    30
100
AcDbCircle
 10
7.0277659797
 20
3.4139663963
 30
0.0
 40
0.032
100
AcDbArc
 50
261.1501169016
 51
0.0
  0
ARC
  5
58B
330
1F
100
AcDbEntity
  8
0
  6
Continuous
 62
     7
370
    30
100
AcDbCircle
 10
6.9277659797
 20
4.0887869836
 30
0.0
 40
0.0499999999999998
100
AcDbArc
 50
119.8355602232
 51
180.0
  0
LINE
  5
58C
330
1F
100
AcDbEntity
  8
0
  6
Continuous
 62
     7
370
    30
100
AcDbLine
 10
6.8957659678
 20
3.9709664228
 30
0.0
 11
6.8957659678
 21
4.0887870151
 31
0.0
  0
LINE
  5
58D
330
1F
100
AcDbEntity
  8
0
  6
Continuous
 62
     7
370
    30
100
AcDbLine
 10
6.0610379706
 20
4.2234208398
 30
0.0
 11
6.0671943795
 21
4.2403353444
 31
0.0
  0
ARC
  5
58E
330
1F
100
AcDbEntity
  8
0
  6
Continuous
 62
     7
370
    30
100
AcDbCircle
 10
6.0437659797
 20
4.1759663963
 30
0.0
 40
0.0505000000000002
100
AcDbArc
 50
70.0
 51
240.1644397768
  0
ARC
  5
58F
330
1F
100
AcDbEntity
  8
0
  6
Continuous
 62
     7
370
    30
100
AcDbCircle
 10
5.9937659797
 20
4.0887869836
 30
0.0
 40
0.0499999999999998
100
AcDbArc
 50
0.0
 51
60.1644397768
  0
LINE
  5
590
330
1F
100
AcDbEntity
  8
0
  6
Continuous
 62
     7
370
    30
100
AcDbLine
 10
6.0437659702
 20
3.9709664228
 30
0.0
 11
6.0437659702
 21
4.0887870151
 31
0.0
  0
ARC
  5
591
330
1F
100
AcDbEntity
  8
0
  6
Continuous
 62
     7
370
    30
100
AcDbCircle
 10
6.2937659797
 20
3.9709663963
 30
0.0
 40
0.2500000000000009
100
AcDbArc
 50
180.0
 51
243.2145316219
  0
ARC
  5
592
330
1F
100
AcDbEntity
  8
0
  6
Continuous
 62
     7
370
    30
100
AcDbCircle
 10
6.1527121715
 20
3.6915512514
 30
0.0
 40
0.0629999999999999
100
AcDbArc
 50
351.9770130931
 51
63.2145316219
  0
ARC
  5
593
330
1F
100
AcDbEntity
  8
0
  6
Continuous
 62
     7
370
    30
100
AcDbCircle
 10
5.8437659797
 20
3.7350972108
 30
0.0
 40
0.3749999999999999
100
AcDbArc
 50
278.8498830984
 51
351.9770130931
  0
LINE
  5
594
330
1F
100
AcDbEntity
  8
0
  6
Continuous
 62
     7
370
    30
100
AcDbLine
 10
5.8617659593
 20
3.5439663889
 30
0.0
 11
5.8437659873
 21
3.5439663889
 31
0.0
  0
LINE
  5
595
330
1F
100
AcDbEntity
  8
0
  6
Continuous
 62
     7
370
    30
100
AcDbLine
 10
5.8617659593
 20
3.5439663889
 30
0.0
 11
5.8617659593
 21
3.413966389
 31
0.0
  0
ARC
  5
596
330
1F
100
AcDbEntity
  8
0
  6
Continuous
 62
     7
370
    30
100
AcDbCircle
 10
5.8937659797
 20
3.4139663963
 30
0.0
 40
0.032
100
AcDbArc
 50
180.0
 51
278.8498830984
  0
ARC
  5
597
330
1F
100
AcDbEntity
  8
0
  6
Continuous
 62
     7
370
    30
100
AcDbCircle
 10
6.1527121715
 20
3.6915512514
 30
0.0
 40
0.0449999999999999
100
AcDbArc
 50
351.9770130931
 51
63.2145316219
  0
ARC
  5
598
330
1F
100
AcDbEntity
  8
0
  6
Continuous
 62
     7
370
    30
100
AcDbCircle
 10
6.2937659797
 20
3.9709663963
 30
0.0
 40
0.2680000000000007
100
AcDbArc
 50
180.0
 51
243.2145316219
  0
LINE
  5
599
330
1F
100
AcDbEntity
  8
0
  6
Continuous
 62
     7
370
    30
100
AcDbLine
 10
6.0257659981
 20
3.9709664228
 30
0.0
 11
6.0257659981
 21
4.0887870151
 31
0.0
  0
ARC
  5
59A
330
1F
100
AcDbEntity
  8
0
  6
Continuous
 62
     7
370
    30
100
AcDbCircle
 10
5.9937659797
 20
4.0887869836
 30
0.0
 40
0.032
100
AcDbArc
 50
0.0
 51
60.1644397768
  0
LINE
  5
59B
330
1F
100
AcDbEntity
  8
0
  6
Continuous
 62
     7
370
    30
100
AcDbLine
 10
5.8437659873
 20
3.5439663889
 30
0.0
 11
5.8437659873
 21
3.413966389
 31
0.0
  0
ARC
  5
59C
330
1F
100
AcDbEntity
  8
0
  6
Continuous
 62
     7
370
    30
100
AcDbCircle
 10
5.8937659797
 20
3.4139663963
 30
0.0
 40
0.0499999999999998
100
AcDbArc
 50
180.0
 51
278.8498830984
  0
ARC
  5
59D
330
1F
100
AcDbEntity
  8
0
  6
Continuous
 62
     7
370
    30
100
AcDbCircle
 10
5.8437659797
 20
3.7350972108
 30
0.0
 40
0.3570000000000002
100
AcDbArc
 50
278.8498830984
 51
351.9770130931
  0
ARC
  5
59E
330
1F
100
AcDbEntity
  8
0
  6
Continuous
 62
     7
370
    30
100
AcDbCircle
 10
6.0437659797
 20
4.1759663963
 30
0.0
 40
0.0685000000000003
100
AcDbArc
 50
70.0
 51
240.1644397768
  0
LINE
  5
59F
330
1F
100
AcDbEntity
  8
0
  6
Continuous
 62
     7
370
    30
100
AcDbLine
 10
7.3110380105
 20
4.2234208398
 30
0.0
 11
7.3171944194
 21
4.2403353444
 31
0.0
  0
ARC
  5
5A0
330
1F
100
AcDbEntity
  8
0
  6
Continuous
 62
     7
370
    30
100
AcDbCircle
 10
7.2937659797
 20
4.1759663963
 30
0.0
 40
0.0505000000000004
100
AcDbArc
 50
70.0
 51
240.1644397768
  0
ARC
  5
5A1
330
1F
100
AcDbEntity
  8
0
  6
Continuous
 62
     7
370
    30
100
AcDbCircle
 10
7.2437659797
 20
4.0887869836
 30
0.0
 40
0.0499999999999998
100
AcDbArc
 50
0.0
 51
60.1644397768
  0
LINE
  5
5A2
330
1F
100
AcDbEntity
  8
0
  6
Continuous
 62
     7
370
    30
100
AcDbLine
 10
7.2937660101
 20
3.9709664228
 30
0.0
 11
7.2937660101
 21
4.0887870151
 31
0.0
  0
ARC
  5
5A3
330
1F
100
AcDbEntity
  8
0
  6
Continuous
 62
     7
370
    30
100
AcDbCircle
 10
7.5437659797
 20
3.9709663963
 30
0.0
 40
0.2500000000000009
100
AcDbArc
 50
180.0
 51
243.2145316219
  0
ARC
  5
5A4
330
1F
100
AcDbEntity
  8
0
  6
Continuous
 62
     7
370
    30
100
AcDbCircle
 10
7.4027121715
 20
3.6915512514
 30
0.0
 40
0.0629999999999996
100
AcDbArc
 50
351.9770130931
 51
63.2145316219
  0
ARC
  5
5A5
330
1F
100
AcDbEntity
  8
0
  6
Continuous
 62
     7
370
    30
100
AcDbCircle
 10
7.1437659797
 20
3.4139663963
 30
0.0
 40
0.0499999999999998
100
AcDbArc
 50
180.0
 51
278.8498830984
  0
ARC
  5
5A6
330
1F
100
AcDbEntity
  8
0
  6
Continuous
 62
     7
370
    30
100
AcDbCircle
 10
7.0937659797
 20
3.7350972108
 30
0.0
 40
0.3569999999999998
100
AcDbArc
 50
278.8498830984
 51
351.9770130931
  0
ARC
  5
5A7
330
1F
100
AcDbEntity
  8
0
  6
Continuous
 62
     7
370
    30
100
AcDbCircle
 10
7.5437659797
 20
3.9709663963
 30
0.0
 40
0.2680000000000007
100
AcDbArc
 50
180.0
 51
243.2145316219
  0
ARC
  5
5A8
330
1F
100
AcDbEntity
  8
0
  6
Continuous
 62
     7
370
    30
100
AcDbCircle
 10
7.2937659797
 20
4.1759663963
 30
0.0
 40
0.0685000000000007
100
AcDbArc
 50
70.0
 51
240.1644397768
  0
ARC
  5
5A9
330
1F
100
AcDbEntity
  8
0
  6
Continuous
 62
     7
370
    30
100
AcDbCircle
 10
7.2437659797
 20
4.0887869836
 30
0.0
 40
0.032
100
AcDbArc
 50
0.0
 51
60.1644397768
  0
LINE
  5
5AA
330
1F
100
AcDbEntity
  8
0
  6
Continuous
 62
     7
370
    30
100
AcDbLine
 10
7.2757659647
 20
3.9709664228
 30
0.0
 11
7.2757659647
 21
4.0887870151
 31
0.0
  0
ARC
  5
5AB
330
1F
100
AcDbEntity
  8
0
  6
Continuous
 62
     7
370
    30
100
AcDbCircle
 10
7.4027121715
 20
3.6915512514
 30
0.0
 40
0.0449999999999999
100
AcDbArc
 50
351.9770130931
 51
63.2145316219
  0
ARC
  5
5AC
330
1F
100
AcDbEntity
  8
0
  6
Continuous
 62
     7
370
    30
100
AcDbCircle
 10
7.1437659797
 20
3.4139663963
 30
0.0
 40
0.0320000000000009
100
AcDbArc
 50
180.0
 51
278.8498830984
  0
ARC
  5
5AD
330
1F
100
AcDbEntity
  8
0
  6
Continuous
 62
     7
370
    30
100
AcDbCircle
 10
7.0937659797
 20
3.7350972108
 30
0.0
 40
0.3749999999999999
100
AcDbArc
 50
278.8498830984
 51
351.9770130931
  0
LINE
  5
5AE
330
1F
100
AcDbEntity
  8
0
  6
Continuous
 62
     7
370
    30
100
AcDbLine
 10
7.1117659259
 20
3.5439663889
 30
0.0
 11
7.0937660271
 21
3.5439663889
 31
0.0
  0
LINE
  5
5AF
330
1F
100
AcDbEntity
  8
0
  6
Continuous
 62
     7
370
    30
100
AcDbLine
 10
7.0937660271
 20
3.5439663889
 30
0.0
 11
7.0937660271
 21
3.413966389
 31
0.0
  0
LINE
  5
5B0
330
1F
100
AcDbEntity
  8
0
  6
Continuous
 62
     7
370
    30
100
AcDbLine
 10
7.1117659259
 20
3.5439663889
 30
0.0
 11
7.1117659259
 21
3.413966389
 31
0.0
  0
LINE
  5
5B1
330
1F
100
AcDbEntity
  8
0
  6
Continuous
 62
     7
370
    30
100
AcDbLine
 10
4.3957659613
 20
3.9709664228
 30
0.0
 11
4.3957659613
 21
4.0887870151
 31
0.0
  0
ARC
  5
5B2
330
1F
100
AcDbEntity
  8
0
  6
Continuous
 62
     7
370
    30
100
AcDbCircle
 10
4.1277659797
 20
3.9709663963
 30
0.0
 40
0.268
100
AcDbArc
 50
296.7854683781
 51
0.0
  0
ARC
  5
5B3
330
1F
100
AcDbEntity
  8
0
  6
Continuous
 62
     7
370
    30
100
AcDbCircle
 10
4.2688197879
 20
3.6915512514
 30
0.0
 40
0.0450000000000003
100
AcDbArc
 50
116.7854683781
 51
188.0229869069
  0
ARC
  5
5B4
330
1F
100
AcDbEntity
  8
0
  6
Continuous
 62
     7
370
    30
100
AcDbCircle
 10
4.5777659797
 20
3.7350972108
 30
0.0
 40
0.3569999999999998
100
AcDbArc
 50
188.0229869069
 51
261.1501169016
  0
ARC
  5
5B5
330
1F
100
AcDbEntity
  8
0
  6
Continuous
 62
     7
370
    30
100
AcDbCircle
 10
4.5277659797
 20
3.4139663963
 30
0.0
 40
0.0320000000000009
100
AcDbArc
 50
261.1501169016
 51
0.0
  0
LINE
  5
5B6
330
1F
100
AcDbEntity
  8
0
  6
Continuous
 62
     7
370
    30
100
AcDbLine
 10
4.5597660001
 20
3.5439663889
 30
0.0
 11
4.5597660001
 21
3.413966389
 31
0.0
  0
LINE
  5
5B7
330
1F
100
AcDbEntity
  8
0
  6
Continuous
 62
     7
370
    30
100
AcDbLine
 10
4.5597660001
 20
3.5439663889
 30
0.0
 11
4.5777659722
 21
3.5439663889
 31
0.0
  0
LINE
  5
5B8
330
1F
100
AcDbEntity
  8
0
  6
Continuous
 62
     7
370
    30
100
AcDbLine
 10
4.5777659722
 20
3.5439663889
 30
0.0
 11
4.5777659722
 21
3.413966389
 31
0.0
  0
ARC
  5
5B9
330
1F
100
AcDbEntity
  8
0
  6
Continuous
 62
     7
370
    30
100
AcDbCircle
 10
4.5277659797
 20
3.4139663963
 30
0.0
 40
0.0500000000000002
100
AcDbArc
 50
261.1501169016
 51
0.0
  0
ARC
  5
5BA
330
1F
100
AcDbEntity
  8
0
  6
Continuous
 62
     7
370
    30
100
AcDbCircle
 10
4.5777659797
 20
3.7350972108
 30
0.0
 40
0.3750000000000001
100
AcDbArc
 50
188.0229869069
 51
261.1501169016
  0
ARC
  5
5BB
330
1F
100
AcDbEntity
  8
0
  6
Continuous
 62
     7
370
    30
100
AcDbCircle
 10
4.2688197879
 20
3.6915512514
 30
0.0
 40
0.0629999999999996
100
AcDbArc
 50
116.7854683781
 51
188.0229869069
  0
ARC
  5
5BC
330
1F
100
AcDbEntity
  8
0
  6
Continuous
 62
     7
370
    30
100
AcDbCircle
 10
4.1277659797
 20
3.9709663963
 30
0.0
 40
0.25
100
AcDbArc
 50
296.7854683781
 51
0.0
  0
LINE
  5
5BD
330
1F
100
AcDbEntity
  8
0
  6
Continuous
 62
     7
370
    30
100
AcDbLine
 10
4.3777659893
 20
3.9709664228
 30
0.0
 11
4.3777659893
 21
4.0887870151
 31
0.0
  0
ARC
  5
5BE
330
1F
100
AcDbEntity
  8
0
  6
Continuous
 62
     7
370
    30
100
AcDbCircle
 10
4.4277659797
 20
4.0887869836
 30
0.0
 40
0.0500000000000007
100
AcDbArc
 50
119.8355602232
 51
180.0
  0
ARC
  5
5BF
330
1F
100
AcDbEntity
  8
0
  6
Continuous
 62
     7
370
    30
100
AcDbCircle
 10
4.3777659797
 20
4.1759663963
 30
0.0
 40
0.0505000000000004
100
AcDbArc
 50
299.8355602232
 51
110.0
  0
LINE
  5
5C0
330
1F
100
AcDbEntity
  8
0
  6
Continuous
 62
     7
370
    30
100
AcDbLine
 10
4.3604939888
 20
4.2234208398
 30
0.0
 11
4.3543375799
 21
4.2403353444
 31
0.0
  0
ARC
  5
5C1
330
1F
100
AcDbEntity
  8
0
  6
Continuous
 62
     7
370
    30
100
AcDbCircle
 10
4.3777659797
 20
4.1759663963
 30
0.0
 40
0.0685000000000004
100
AcDbArc
 50
299.8355602232
 51
110.0
  0
ARC
  5
5C2
330
1F
100
AcDbEntity
  8
0
  6
Continuous
 62
     7
370
    30
100
AcDbCircle
 10
4.4277659797
 20
4.0887869836
 30
0.0
 40
0.032
100
AcDbArc
 50
119.8355602232
 51
180.0
  0
LINE
  5
5C3
330
1F
100
AcDbEntity
  8
0
  6
Continuous
 62
     7
370
    30
100
AcDbLine
 10
4.7757659949
 20
3.9709664228
 30
0.0
 11
4.7757659949
 21
4.0887870151
 31
0.0
  0
ARC
  5
5C4
330
1F
100
AcDbEntity
  8
0
  6
Continuous
 62
     7
370
    30
100
AcDbCircle
 10
4.9027121715
 20
3.6915512514
 30
0.0
 40
0.0629999999999999
100
AcDbArc
 50
351.9770130931
 51
63.2145316219
  0
LINE
  5
5C5
330
1F
100
AcDbEntity
  8
0
  6
Continuous
 62
     7
370
    30
100
AcDbLine
 10
4.7937659669
 20
3.9709664228
 30
0.0
 11
4.7937659669
 21
4.0887870151
 31
0.0
  0
ARC
  5
5C6
330
1F
100
AcDbEntity
  8
0
  6
Continuous
 62
     7
370
    30
100
AcDbCircle
 10
4.7437659797
 20
4.0887869836
 30
0.0
 40
0.032
100
AcDbArc
 50
0.0
 51
60.1644397768
  0
ARC
  5
5C7
330
1F
100
AcDbEntity
  8
0
  6
Continuous
 62
     7
370
    30
100
AcDbCircle
 10
4.9027121715
 20
3.6915512514
 30
0.0
 40
0.0449999999999999
100
AcDbArc
 50
351.9770130931
 51
63.2145316219
  0
ARC
  5
5C8
330
1F
100
AcDbEntity
  8
0
  6
Continuous
 62
     7
370
    30
100
AcDbCircle
 10
4.7437659797
 20
4.0887869836
 30
0.0
 40
0.05
100
AcDbArc
 50
0.0
 51
60.1644397768
  0
ARC
  5
5C9
330
1F
100
AcDbEntity
  8
0
  6
Continuous
 62
     7
370
    30
100
AcDbCircle
 10
5.0437659797
 20
3.9709663963
 30
0.0
 40
0.2680000000000007
100
AcDbArc
 50
180.0
 51
243.2145316219
  0
ARC
  5
5CA
330
1F
100
AcDbEntity
  8
0
  6
Continuous
 62
     7
370
    30
100
AcDbCircle
 10
4.7937659797
 20
4.1759663963
 30
0.0
 40
0.0684999999999999
100
AcDbArc
 50
70.0
 51
240.1644397768
  0
LINE
  5
5CB
330
1F
100
AcDbEntity
  8
0
  6
Continuous
 62
     7
370
    30
100
AcDbLine
 10
4.6117659928
 20
3.5439663889
 30
0.0
 11
4.5937659474
 21
3.5439663889
 31
0.0
  0
ARC
  5
5CC
330
1F
100
AcDbEntity
  8
0
  6
Continuous
 62
     7
370
    30
100
AcDbCircle
 10
4.5937659797
 20
3.7350972108
 30
0.0
 40
0.3750000000000001
100
AcDbArc
 50
278.8498830984
 51
351.9770130931
  0
ARC
  5
5CD
330
1F
100
AcDbEntity
  8
0
  6
Continuous
 62
     7
370
    30
100
AcDbCircle
 10
5.0437659797
 20
3.9709663963
 30
0.0
 40
0.25
100
AcDbArc
 50
180.0
 51
243.2145316219
  0
LINE
  5
5CE
330
1F
100
AcDbEntity
  8
0
  6
Continuous
 62
     7
370
    30
100
AcDbLine
 10
4.8110380041
 20
4.2234208398
 30
0.0
 11
4.8171943763
 21
4.2403353444
 31
0.0
  0
ARC
  5
5CF
330
1F
100
AcDbEntity
  8
0
  6
Continuous
 62
     7
370
    30
100
AcDbCircle
 10
4.6437659797
 20
3.4139663963
 30
0.0
 40
0.032
100
AcDbArc
 50
180.0
 51
278.8498830984
  0
ARC
  5
5D0
330
1F
100
AcDbEntity
  8
0
  6
Continuous
 62
     7
370
    30
100
AcDbCircle
 10
4.6437659797
 20
3.4139663963
 30
0.0
 40
0.0499999999999998
100
AcDbArc
 50
180.0
 51
278.8498830984
  0
LINE
  5
5D1
330
1F
100
AcDbEntity
  8
0
  6
Continuous
 62
     7
370
    30
100
AcDbLine
 10
4.6117659928
 20
3.5439663889
 30
0.0
 11
4.6117659928
 21
3.413966389
 31
0.0
  0
ARC
  5
5D2
330
1F
100
AcDbEntity
  8
0
  6
Continuous
 62
     7
370
    30
100
AcDbCircle
 10
4.5937659797
 20
3.7350972108
 30
0.0
 40
0.3569999999999999
100
AcDbArc
 50
278.8498830984
 51
351.9770130931
  0
ARC
  5
5D3
330
1F
100
AcDbEntity
  8
0
  6
Continuous
 62
     7
370
    30
100
AcDbCircle
 10
4.7937659797
 20
4.1759663963
 30
0.0
 40
0.0505000000000004
100
AcDbArc
 50
70.0
 51
240.1644397768
  0
LINE
  5
5D4
330
1F
100
AcDbEntity
  8
0
  6
Continuous
 62
     7
370
    30
100
AcDbLine
 10
4.5937659474
 20
3.5439663889
 30
0.0
 11
4.5937659474
 21
3.413966389
 31
0.0
  0
ARC
  5
5D5
330
1F
100
AcDbEntity
  8
0
  6
Continuous
 62
     7
370
    30
100
AcDbCircle
 10
5.6777659797
 20
4.0887869836
 30
0.0
 40
0.032
100
AcDbArc
 50
119.8355602232
 51
180.0
  0
ARC
  5
5D6
330
1F
100
AcDbEntity
  8
0
  6
Continuous
 62
     7
370
    30
100
AcDbCircle
 10
5.3777659797
 20
3.9709663963
 30
0.0
 40
0.2680000000000007
100
AcDbArc
 50
296.7854683781
 51
0.0
  0
ARC
  5
5D7
330
1F
100
AcDbEntity
  8
0
  6
Continuous
 62
     7
370
    30
100
AcDbCircle
 10
5.5188197879
 20
3.6915512514
 30
0.0
 40
0.0449999999999995
100
AcDbArc
 50
116.7854683781
 51
188.0229869069
  0
ARC
  5
5D8
330
1F
100
AcDbEntity
  8
0
  6
Continuous
 62
     7
370
    30
100
AcDbCircle
 10
5.8277659797
 20
3.7350972108
 30
0.0
 40
0.3569999999999993
100
AcDbArc
 50
188.0229869069
 51
261.1501169016
  0
LINE
  5
5D9
330
1F
100
AcDbEntity
  8
0
  6
Continuous
 62
     7
370
    30
100
AcDbLine
 10
5.8097659667
 20
3.5439663889
 30
0.0
 11
5.8097659667
 21
3.413966389
 31
0.0
  0
LINE
  5
5DA
330
1F
100
AcDbEntity
  8
0
  6
Continuous
 62
     7
370
    30
100
AcDbLine
 10
5.8097659667
 20
3.5439663889
 30
0.0
 11
5.8277660121
 21
3.5439663889
 31
0.0
  0
LINE
  5
5DB
330
1F
100
AcDbEntity
  8
0
  6
Continuous
 62
     7
370
    30
100
AcDbLine
 10
5.8277660121
 20
3.5439663889
 30
0.0
 11
5.8277660121
 21
3.413966389
 31
0.0
  0
ARC
  5
5DC
330
1F
100
AcDbEntity
  8
0
  6
Continuous
 62
     7
370
    30
100
AcDbCircle
 10
5.7777659797
 20
3.4139663963
 30
0.0
 40
0.0500000000000002
100
AcDbArc
 50
261.1501169016
 51
0.0
  0
ARC
  5
5DD
330
1F
100
AcDbEntity
  8
0
  6
Continuous
 62
     7
370
    30
100
AcDbCircle
 10
5.8277659797
 20
3.7350972108
 30
0.0
 40
0.3750000000000001
100
AcDbArc
 50
188.0229869069
 51
261.1501169016
  0
ARC
  5
5DE
330
1F
100
AcDbEntity
  8
0
  6
Continuous
 62
     7
370
    30
100
AcDbCircle
 10
5.5188197879
 20
3.6915512514
 30
0.0
 40
0.0630000000000005
100
AcDbArc
 50
116.7854683781
 51
188.0229869069
  0
ARC
  5
5DF
330
1F
100
AcDbEntity
  8
0
  6
Continuous
 62
     7
370
    30
100
AcDbCircle
 10
5.3777659797
 20
3.9709663963
 30
0.0
 40
0.2500000000000004
100
AcDbArc
 50
296.7854683781
 51
0.0
  0
LINE
  5
5E0
330
1F
100
AcDbEntity
  8
0
  6
Continuous
 62
     7
370
    30
100
AcDbLine
 10
5.6277659925
 20
3.9709664228
 30
0.0
 11
5.6277659925
 21
4.0887870151
 31
0.0
  0
ARC
  5
5E1
330
1F
100
AcDbEntity
  8
0
  6
Continuous
 62
     7
370
    30
100
AcDbCircle
 10
5.6777659797
 20
4.0887869836
 30
0.0
 40
0.0499999999999996
100
AcDbArc
 50
119.8355602232
 51
180.0
  0
ARC
  5
5E2
330
1F
100
AcDbEntity
  8
0
  6
Continuous
 62
     7
370
    30
100
AcDbCircle
 10
5.6277659797
 20
4.1759663963
 30
0.0
 40
0.0505000000000004
100
AcDbArc
 50
299.8355602232
 51
110.0
  0
LINE
  5
5E3
330
1F
100
AcDbEntity
  8
0
  6
Continuous
 62
     7
370
    30
100
AcDbLine
 10
5.6104939554
 20
4.2234208398
 30
0.0
 11
5.6043375832
 21
4.2403353444
 31
0.0
  0
ARC
  5
5E4
330
1F
100
AcDbEntity
  8
0
  6
Continuous
 62
     7
370
    30
100
AcDbCircle
 10
5.6277659797
 20
4.1759663963
 30
0.0
 40
0.0685000000000007
100
AcDbArc
 50
299.8355602232
 51
110.0
  0
LINE
  5
5E5
330
1F
100
AcDbEntity
  8
0
  6
Continuous
 62
     7
370
    30
100
AcDbLine
 10
5.6457659646
 20
3.9709664228
 30
0.0
 11
5.6457659646
 21
4.0887870151
 31
0.0
  0
ARC
  5
5E6
330
1F
100
AcDbEntity
  8
0
  6
Continuous
 62
     7
370
    30
100
AcDbCircle
 10
5.7777659797
 20
3.4139663963
 30
0.0
 40
0.0320000000000009
100
AcDbArc
 50
261.1501169016
 51
0.0
  0
LINE
  5
5E7
330
1F
100
AcDbEntity
  8
0
  6
Continuous
 62
     7
370
    30
100
AcDbLine
 10
3.5610380375
 20
4.2234208398
 30
0.0
 11
3.5671942997
 21
4.2403353444
 31
0.0
  0
ARC
  5
5E8
330
1F
100
AcDbEntity
  8
0
  6
Continuous
 62
     7
370
    30
100
AcDbCircle
 10
3.5437659797
 20
4.1759663963
 30
0.0
 40
0.0505000000000004
100
AcDbArc
 50
70.0
 51
240.1644397768
  0
ARC
  5
5E9
330
1F
100
AcDbEntity
  8
0
  6
Continuous
 62
     7
370
    30
100
AcDbCircle
 10
3.4937659797
 20
4.0887869836
 30
0.0
 40
0.0500000000000005
100
AcDbArc
 50
0.0
 51
60.1644397768
  0
LINE
  5
5EA
330
1F
100
AcDbEntity
  8
0
  6
Continuous
 62
     7
370
    30
100
AcDbLine
 10
3.543766037
 20
3.9709664228
 30
0.0
 11
3.543766037
 21
4.0887870151
 31
0.0
  0
ARC
  5
5EB
330
1F
100
AcDbEntity
  8
0
  6
Continuous
 62
     7
370
    30
100
AcDbCircle
 10
3.7937659797
 20
3.9709663963
 30
0.0
 40
0.2500000000000004
100
AcDbArc
 50
180.0
 51
243.2145316219
  0
ARC
  5
5EC
330
1F
100
AcDbEntity
  8
0
  6
Continuous
 62
     7
370
    30
100
AcDbCircle
 10
3.6527121715
 20
3.6915512514
 30
0.0
 40
0.0630000000000001
100
AcDbArc
 50
351.9770130931
 51
63.2145316219
  0
ARC
  5
5ED
330
1F
100
AcDbEntity
  8
0
  6
Continuous
 62
     7
370
    30
100
AcDbCircle
 10
3.3937659797
 20
3.4139663963
 30
0.0
 40
0.0500000000000003
100
AcDbArc
 50
180.0
 51
278.8498830984
  0
LINE
  5
5EE
330
1F
100
AcDbEntity
  8
0
  6
Continuous
 62
     7
370
    30
100
AcDbLine
 10
3.3437659075
 20
3.5439663889
 30
0.0
 11
3.3437659075
 21
3.413966389
 31
0.0
  0
LINE
  5
5EF
330
1F
100
AcDbEntity
  8
0
  6
Continuous
 62
     7
370
    30
100
AcDbLine
 10
3.3617659529
 20
3.5439663889
 30
0.0
 11
3.3437659075
 21
3.5439663889
 31
0.0
  0
LINE
  5
5F0
330
1F
100
AcDbEntity
  8
0
  6
Continuous
 62
     7
370
    30
100
AcDbLine
 10
3.3617659529
 20
3.5439663889
 30
0.0
 11
3.3617659529
 21
3.413966389
 31
0.0
  0
ARC
  5
5F1
330
1F
100
AcDbEntity
  8
0
  6
Continuous
 62
     7
370
    30
100
AcDbCircle
 10
3.3937659797
 20
3.4139663963
 30
0.0
 40
0.032
100
AcDbArc
 50
180.0
 51
278.8498830984
  0
ARC
  5
5F2
330
1F
100
AcDbEntity
  8
0
  6
Continuous
 62
     7
370
    30
100
AcDbCircle
 10
3.3437659797
 20
3.7350972108
 30
0.0
 40
0.3569999999999998
100
AcDbArc
 50
278.8498830984
 51
351.9770130931
  0
ARC
  5
5F3
330
1F
100
AcDbEntity
  8
0
  6
Continuous
 62
     7
370
    30
100
AcDbCircle
 10
3.6527121715
 20
3.6915512514
 30
0.0
 40
0.0449999999999998
100
AcDbArc
 50
351.9770130931
 51
63.2145316219
  0
ARC
  5
5F4
330
1F
100
AcDbEntity
  8
0
  6
Continuous
 62
     7
370
    30
100
AcDbCircle
 10
3.7937659797
 20
3.9709663963
 30
0.0
 40
0.2680000000000006
100
AcDbArc
 50
180.0
 51
243.2145316219
  0
ARC
  5
5F5
330
1F
100
AcDbEntity
  8
0
  6
Continuous
 62
     7
370
    30
100
AcDbCircle
 10
3.4937659797
 20
4.0887869836
 30
0.0
 40
0.0320000000000005
100
AcDbArc
 50
0.0
 51
60.1644397768
  0
LINE
  5
5F6
330
1F
100
AcDbEntity
  8
0
  6
Continuous
 62
     7
370
    30
100
AcDbLine
 10
3.5257659917
 20
3.9709664228
 30
0.0
 11
3.5257659917
 21
4.0887870151
 31
0.0
  0
ARC
  5
5F7
330
1F
100
AcDbEntity
  8
0
  6
Continuous
 62
     7
370
    30
100
AcDbCircle
 10
3.3437659797
 20
3.7350972108
 30
0.0
 40
0.3749999999999997
100
AcDbArc
 50
278.8498830984
 51
351.9770130931
  0
ARC
  5
5F8
330
1F
100
AcDbEntity
  8
0
  6
Continuous
 62
     7
370
    30
100
AcDbCircle
 10
3.5437659797
 20
4.1759663963
 30
0.0
 40
0.0685000000000004
100
AcDbArc
 50
70.0
 51
240.1644397768
  0
LINE
  5
5F9
330
1F
100
AcDbEntity
  8
0
  6
Continuous
 62
     7
370
    30
100
AcDbLine
 10
5.7418358114
 20
4.3022113163
 30
0.0
 11
5.7621961729
 21
4.3139663671
 31
0.0
  0
LINE
  5
5FA
330
1F
100
AcDbEntity
  8
0
  6
Continuous
 62
     7
370
    30
100
AcDbLine
 10
5.7418358114
 20
4.2963548373
 30
0.0
 11
5.7418358114
 21
4.3022113163
 31
0.0
  0
LINE
  5
5FB
330
1F
100
AcDbEntity
  8
0
  6
Continuous
 62
     7
370
    30
100
AcDbLine
 10
5.7621961729
 20
4.2787429407
 30
0.0
 11
5.7621961729
 21
4.2845997864
 31
0.0
  0
LINE
  5
5FC
330
1F
100
AcDbEntity
  8
0
  6
Continuous
 62
     7
370
    30
100
AcDbLine
 10
5.7418358114
 20
4.2669878898
 30
0.0
 11
5.7621961729
 21
4.2787429407
 31
0.0
  0
LINE
  5
5FD
330
1F
100
AcDbEntity
  8
0
  6
Continuous
 62
     7
370
    30
100
AcDbLine
 10
5.7621961729
 20
4.24937636
 30
0.0
 11
5.7418358114
 21
4.2611314108
 31
0.0
  0
LINE
  5
5FE
330
1F
100
AcDbEntity
  8
0
  6
Continuous
 62
     7
370
    30
100
AcDbLine
 10
5.7621961729
 20
4.2435195143
 30
0.0
 11
5.7621961729
 21
4.24937636
 31
0.0
  0
LINE
  5
5FF
330
1F
100
AcDbEntity
  8
0
  6
Continuous
 62
     7
370
    30
100
AcDbLine
 10
5.7418358114
 20
4.2317644634
 30
0.0
 11
5.7621961729
 21
4.2435195143
 31
0.0
  0
LINE
  5
600
330
1F
100
AcDbEntity
  8
0
  6
Continuous
 62
     7
370
    30
100
AcDbLine
 10
5.7621961729
 20
4.2141529335
 30
0.0
 11
5.7418358114
 21
4.2259079844
 31
0.0
  0
LINE
  5
601
330
1F
100
AcDbEntity
  8
0
  6
Continuous
 62
     7
370
    30
100
AcDbLine
 10
5.7418358114
 20
4.196541037
 30
0.0
 11
5.7621961729
 21
4.2082961612
 31
0.0
  0
LINE
  5
602
330
1F
100
AcDbEntity
  8
0
  6
Continuous
 62
     7
370
    30
100
AcDbLine
 10
5.7418358114
 20
4.190684558
 30
0.0
 11
5.7418358114
 21
4.196541037
 31
0.0
  0
LINE
  5
603
330
1F
100
AcDbEntity
  8
0
  6
Continuous
 62
     7
370
    30
100
AcDbLine
 10
5.7621961729
 20
4.1789295071
 30
0.0
 11
5.7418358114
 21
4.190684558
 31
0.0
  0
LINE
  5
604
330
1F
100
AcDbEntity
  8
0
  6
Continuous
 62
     7
370
    30
100
AcDbLine
 10
5.7621961729
 20
4.1730727348
 30
0.0
 11
5.7621961729
 21
4.1789295071
 31
0.0
  0
LINE
  5
605
330
1F
100
AcDbEntity
  8
0
  6
Continuous
 62
     7
370
    30
100
AcDbLine
 10
5.7418358114
 20
4.1613176106
 30
0.0
 11
5.7621961729
 21
4.1730727348
 31
0.0
  0
LINE
  5
606
330
1F
100
AcDbEntity
  8
0
  6
Continuous
 62
     7
370
    30
100
AcDbLine
 10
5.7621961729
 20
4.1437060807
 30
0.0
 11
5.7418358114
 21
4.1554611315
 31
0.0
  0
LINE
  5
607
330
1F
100
AcDbEntity
  8
0
  6
Continuous
 62
     7
370
    30
100
AcDbLine
 10
5.7418358114
 20
4.1260941841
 30
0.0
 11
5.7621961729
 21
4.1378493083
 31
0.0
  0
LINE
  5
608
330
1F
100
AcDbEntity
  8
0
  6
Continuous
 62
     7
370
    30
100
AcDbLine
 10
5.7418358114
 20
4.1202377051
 30
0.0
 11
5.7418358114
 21
4.1260941841
 31
0.0
  0
LINE
  5
609
330
1F
100
AcDbEntity
  8
0
  6
Continuous
 62
     7
370
    30
100
AcDbLine
 10
5.7621961729
 20
4.1084826542
 30
0.0
 11
5.7418358114
 21
4.1202377051
 31
0.0
  0
LINE
  5
60A
330
1F
100
AcDbEntity
  8
0
  6
Continuous
 62
     7
370
    30
100
AcDbLine
 10
5.7621961729
 20
4.1026258819
 30
0.0
 11
5.7621961729
 21
4.1084826542
 31
0.0
  0
LINE
  5
60B
330
1F
100
AcDbEntity
  8
0
  6
Continuous
 62
     7
370
    30
100
AcDbLine
 10
5.7418358114
 20
4.090870831
 30
0.0
 11
5.7621961729
 21
4.1026258819
 31
0.0
  0
LINE
  5
60C
330
1F
100
AcDbEntity
  8
0
  6
Continuous
 62
     7
370
    30
100
AcDbLine
 10
5.7418358114
 20
4.0850142787
 30
0.0
 11
5.7418358114
 21
4.090870831
 31
0.0
  0
LINE
  5
60D
330
1F
100
AcDbEntity
  8
0
  6
Continuous
 62
     7
370
    30
100
AcDbLine
 10
5.7621969795
 20
4.0732587878
 30
0.0
 11
5.7418358114
 21
4.0850142787
 31
0.0
  0
ARC
  5
60E
330
1F
100
AcDbEntity
  8
0
  6
Continuous
 62
     7
370
    30
100
AcDbCircle
 10
5.7537659797
 20
4.0299663963
 30
0.0
 40
0.0310000000000006
100
AcDbArc
 50
95.4495226951
 51
270.0
  0
LINE
  5
60F
330
1F
100
AcDbEntity
  8
0
  6
Continuous
 62
     7
370
    30
100
AcDbLine
 10
5.9297270609
 20
4.0691808416
 30
0.0
 11
5.925125814
 21
4.0665242989
 31
0.0
  0
LINE
  5
610
330
1F
100
AcDbEntity
  8
0
  6
Continuous
 62
     7
370
    30
100
AcDbLine
 10
5.9093666628
 20
4.0867924448
 30
0.0
 11
5.9297270609
 21
4.0750373206
 31
0.0
  0
LINE
  5
611
330
1F
100
AcDbEntity
  8
0
  6
Continuous
 62
     7
370
    30
100
AcDbLine
 10
5.9093666628
 20
4.1220157979
 30
0.0
 11
5.9297270609
 21
4.110260747
 31
0.0
  0
LINE
  5
612
330
1F
100
AcDbEntity
  8
0
  6
Continuous
 62
     7
370
    30
100
AcDbLine
 10
5.9297270609
 20
4.1396276945
 30
0.0
 11
5.9093666628
 21
4.1278726436
 31
0.0
  0
LINE
  5
613
330
1F
100
AcDbEntity
  8
0
  6
Continuous
 62
     7
370
    30
100
AcDbLine
 10
5.9093666628
 20
4.1572392243
 30
0.0
 11
5.9297270609
 21
4.1454841735
 31
0.0
  0
LINE
  5
614
330
1F
100
AcDbEntity
  8
0
  6
Continuous
 62
     7
370
    30
100
AcDbLine
 10
5.9297270609
 20
4.1748511209
 30
0.0
 11
5.9093666628
 21
4.16309607
 31
0.0
  0
LINE
  5
615
330
1F
100
AcDbEntity
  8
0
  6
Continuous
 62
     7
370
    30
100
AcDbLine
 10
5.9297270609
 20
4.2100745473
 30
0.0
 11
5.9093666628
 21
4.1983194964
 31
0.0
  0
LINE
  5
616
330
1F
100
AcDbEntity
  8
0
  6
Continuous
 62
     7
370
    30
100
AcDbLine
 10
5.9297270609
 20
4.2511544528
 30
0.0
 11
5.9297270609
 21
4.2452979737
 31
0.0
  0
LINE
  5
617
330
1F
100
AcDbEntity
  8
0
  6
Continuous
 62
     7
370
    30
100
AcDbLine
 10
5.9093666628
 20
4.3039897757
 30
0.0
 11
5.9093666628
 21
4.2981329301
 31
0.0
  0
LINE
  5
618
330
1F
100
AcDbEntity
  8
0
  6
Continuous
 62
     7
370
    30
100
AcDbLine
 10
6.0857659783
 20
4.25196639
 30
0.0
 11
6.0857659783
 21
4.2503774217
 31
0.0
  0
LINE
  5
619
330
1F
100
AcDbEntity
  8
0
  6
Continuous
 62
     7
370
    30
100
AcDbLine
 10
6.0082660069
 20
3.9389663992
 30
0.0
 11
5.6632659924
 21
3.9389663992
 31
0.0
  0
LINE
  5
61A
330
1F
100
AcDbEntity
  8
0
  6
Continuous
 62
     7
370
    30
100
AcDbLine
 10
5.5857659844
 20
4.25196639
 30
0.0
 11
5.5857659844
 21
4.2503774217
 31
0.0
  0
ARC
  5
61B
330
1F
100
AcDbEntity
  8
0
  6
Continuous
 62
     7
370
    30
100
AcDbCircle
 10
5.6277659797
 20
4.1759663963
 30
0.0
 40
0.0710000000000107
100
AcDbArc
 50
307.5815576188
 51
113.2698239585
  0
ARC
  5
61C
330
1F
100
AcDbEntity
  8
0
  6
Continuous
 62
     7
370
    30
100
AcDbCircle
 10
5.6832659797
 20
4.1038501707
 30
0.0
 40
0.0199999999999996
100
AcDbArc
 50
127.5815576188
 51
180.0
  0
LINE
  5
61D
330
1F
100
AcDbEntity
  8
0
  6
Continuous
 62
     7
370
    30
100
AcDbLine
 10
5.6632659924
 20
4.1038501678
 30
0.0
 11
5.6632659924
 21
3.9389663992
 31
0.0
  0
LINE
  5
61E
330
1F
100
AcDbEntity
  8
0
  6
Continuous
 62
     7
370
    30
100
AcDbLine
 10
6.0082660069
 20
3.9389663992
 30
0.0
 11
6.0082660069
 21
4.1038501678
 31
0.0
  0
ARC
  5
61F
330
1F
100
AcDbEntity
  8
0
  6
Continuous
 62
     7
370
    30
100
AcDbCircle
 10
5.9882659797
 20
4.1038501707
 30
0.0
 40
0.0199999999999997
100
AcDbArc
 50
360.0
 51
52.4184423812
  0
ARC
  5
620
330
1F
100
AcDbEntity
  8
0
  6
Continuous
 62
     7
370
    30
100
AcDbCircle
 10
6.0437659797
 20
4.1759663963
 30
0.0
 40
0.0710000000000088
100
AcDbArc
 50
66.7301760415
 51
232.4184423812
  0
ARC
  5
621
330
1F
100
AcDbEntity
  8
0
  6
Continuous
 62
     7
370
    30
100
AcDbCircle
 10
6.0237659797
 20
4.2519663963
 30
0.0
 40
0.0620000000000003
100
AcDbArc
 50
0.0
 51
90.0
  0
LINE
  5
622
330
1F
100
AcDbEntity
  8
0
  6
Continuous
 62
     7
370
    30
100
AcDbLine
 10
5.9093666628
 20
4.2687663493
 30
0.0
 11
5.9093666628
 21
4.2629095036
 31
0.0
  0
ARC
  5
623
330
1F
100
AcDbEntity
  8
0
  6
Continuous
 62
     7
370
    30
100
AcDbCircle
 10
5.6477659797
 20
4.2519663963
 30
0.0
 40
0.0619999999999994
100
AcDbArc
 50
90.0
 51
180.0
  0
ARC
  5
624
330
1F
100
AcDbEntity
  8
0
  6
Continuous
 62
     7
370
    30
100
AcDbCircle
 10
5.9347989147
 20
4.0639884185
 30
0.0
 40
0.0100000000000086
100
AcDbArc
 50
165.3098749059
 51
203.8403348298
  0
ARC
  5
625
330
1F
100
AcDbEntity
  8
0
  6
Continuous
 62
     7
370
    30
100
AcDbCircle
 10
5.9177659797
 20
4.0299663963
 30
0.0
 40
0.0310000000000004
100
AcDbArc
 50
270.0
 51
75.2623825484
  0
LINE
  5
626
330
1F
100
AcDbEntity
  8
0
  6
Continuous
 62
     7
370
    30
100
AcDbLine
 10
5.7621969795
 20
4.0673936556
 30
0.0
 11
5.7621969795
 21
4.0732587878
 31
0.0
  0
LINE
  5
627
330
1F
100
AcDbEntity
  8
0
  6
Continuous
 62
     7
370
    30
100
AcDbLine
 10
5.9093666628
 20
4.2629095036
 30
0.0
 11
5.9297270609
 21
4.2511544528
 31
0.0
  0
LINE
  5
628
330
1F
100
AcDbEntity
  8
0
  6
Continuous
 62
     7
370
    30
100
AcDbLine
 10
5.9297270609
 20
4.2452979737
 30
0.0
 11
5.9093666628
 21
4.2335429229
 31
0.0
  0
LINE
  5
629
330
1F
100
AcDbEntity
  8
0
  6
Continuous
 62
     7
370
    30
100
AcDbLine
 10
5.9093666628
 20
4.2276860772
 30
0.0
 11
5.9297270609
 21
4.2159310263
 31
0.0
  0
LINE
  5
62A
330
1F
100
AcDbEntity
  8
0
  6
Continuous
 62
     7
370
    30
100
AcDbLine
 10
5.7621961729
 20
4.1378493083
 30
0.0
 11
5.7621961729
 21
4.1437060807
 31
0.0
  0
LINE
  5
62B
330
1F
100
AcDbEntity
  8
0
  6
Continuous
 62
     7
370
    30
100
AcDbLine
 10
5.7418358114
 20
4.1554611315
 30
0.0
 11
5.7418358114
 21
4.1613176106
 31
0.0
  0
LINE
  5
62C
330
1F
100
AcDbEntity
  8
0
  6
Continuous
 62
     7
370
    30
100
AcDbLine
 10
5.9093666628
 20
4.16309607
 30
0.0
 11
5.9093666628
 21
4.1572392243
 31
0.0
  0
LINE
  5
62D
330
1F
100
AcDbEntity
  8
0
  6
Continuous
 62
     7
370
    30
100
AcDbLine
 10
5.7621961729
 20
4.2082961612
 30
0.0
 11
5.7621961729
 21
4.2141529335
 31
0.0
  0
ARC
  5
62E
330
1F
100
AcDbEntity
  8
0
  6
Continuous
 62
     7
370
    30
100
AcDbCircle
 10
5.5957659797
 20
4.250377417
 30
0.0
 40
0.0099999999999998
100
AcDbArc
 50
180.0
 51
293.2698239585
  0
LINE
  5
62F
330
1F
100
AcDbEntity
  8
0
  6
Continuous
 62
     7
370
    30
100
AcDbLine
 10
5.7418358114
 20
4.2259079844
 30
0.0
 11
5.7418358114
 21
4.2317644634
 31
0.0
  0
LINE
  5
630
330
1F
100
AcDbEntity
  8
0
  6
Continuous
 62
     7
370
    30
100
AcDbLine
 10
5.7621961729
 20
4.2845997864
 30
0.0
 11
5.7418358114
 21
4.2963548373
 31
0.0
  0
ARC
  5
631
330
1F
100
AcDbEntity
  8
0
  6
Continuous
 62
     7
370
    30
100
AcDbCircle
 10
6.0757659797
 20
4.250377417
 30
0.0
 40
0.00999999999999
100
AcDbArc
 50
246.7301760415
 51
0.0
  0
LINE
  5
632
330
1F
100
AcDbEntity
  8
0
  6
Continuous
 62
     7
370
    30
100
AcDbLine
 10
5.9266467298
 20
4.3139663671
 30
0.0
 11
5.9093666628
 21
4.3039897757
 31
0.0
  0
LINE
  5
633
330
1F
100
AcDbEntity
  8
0
  6
Continuous
 62
     7
370
    30
100
AcDbLine
 10
5.9093666628
 20
4.2981329301
 30
0.0
 11
5.9297270609
 21
4.2863778792
 31
0.0
  0
LINE
  5
634
330
1F
100
AcDbEntity
  8
0
  6
Continuous
 62
     7
370
    30
100
AcDbLine
 10
5.9297270609
 20
4.2863778792
 30
0.0
 11
5.9297270609
 21
4.2805214002
 31
0.0
  0
LINE
  5
635
330
1F
100
AcDbEntity
  8
0
  6
Continuous
 62
     7
370
    30
100
AcDbLine
 10
5.9297270609
 20
4.2805214002
 30
0.0
 11
5.9093666628
 21
4.2687663493
 31
0.0
  0
LINE
  5
636
330
1F
100
AcDbEntity
  8
0
  6
Continuous
 62
     7
370
    30
100
AcDbLine
 10
5.9093666628
 20
4.1278726436
 30
0.0
 11
5.9093666628
 21
4.1220157979
 31
0.0
  0
LINE
  5
637
330
1F
100
AcDbEntity
  8
0
  6
Continuous
 62
     7
370
    30
100
AcDbLine
 10
5.9093666628
 20
4.2335429229
 30
0.0
 11
5.9093666628
 21
4.2276860772
 31
0.0
  0
LINE
  5
638
330
1F
100
AcDbEntity
  8
0
  6
Continuous
 62
     7
370
    30
100
AcDbLine
 10
5.9297270609
 20
4.2159310263
 30
0.0
 11
5.9297270609
 21
4.2100745473
 31
0.0
  0
LINE
  5
639
330
1F
100
AcDbEntity
  8
0
  6
Continuous
 62
     7
370
    30
100
AcDbLine
 10
5.9093666628
 20
4.1983194964
 30
0.0
 11
5.9093666628
 21
4.1924626508
 31
0.0
  0
LINE
  5
63A
330
1F
100
AcDbEntity
  8
0
  6
Continuous
 62
     7
370
    30
100
AcDbLine
 10
5.9093666628
 20
4.1924626508
 30
0.0
 11
5.9297270609
 21
4.1807075999
 31
0.0
  0
LINE
  5
63B
330
1F
100
AcDbEntity
  8
0
  6
Continuous
 62
     7
370
    30
100
AcDbLine
 10
5.9297270609
 20
4.1807075999
 30
0.0
 11
5.9297270609
 21
4.1748511209
 31
0.0
  0
LINE
  5
63C
330
1F
100
AcDbEntity
  8
0
  6
Continuous
 62
     7
370
    30
100
AcDbLine
 10
5.9177659457
 20
3.9989663794
 30
0.0
 11
5.7537659803
 21
3.9989663794
 31
0.0
  0
LINE
  5
63D
330
1F
100
AcDbEntity
  8
0
  6
Continuous
 62
     7
370
    30
100
AcDbLine
 10
5.9297270609
 20
4.1454841735
 30
0.0
 11
5.9297270609
 21
4.1396276945
 31
0.0
  0
LINE
  5
63E
330
1F
100
AcDbEntity
  8
0
  6
Continuous
 62
     7
370
    30
100
AcDbLine
 10
5.9297270609
 20
4.0750373206
 30
0.0
 11
5.9297270609
 21
4.0691808416
 31
0.0
  0
LINE
  5
63F
330
1F
100
AcDbEntity
  8
0
  6
Continuous
 62
     7
370
    30
100
AcDbLine
 10
5.9093666628
 20
4.0926492172
 30
0.0
 11
5.9093666628
 21
4.0867924448
 31
0.0
  0
LINE
  5
640
330
1F
100
AcDbEntity
  8
0
  6
Continuous
 62
     7
370
    30
100
AcDbLine
 10
5.9297270609
 20
4.104404268
 30
0.0
 11
5.9093666628
 21
4.0926492172
 31
0.0
  0
LINE
  5
641
330
1F
100
AcDbEntity
  8
0
  6
Continuous
 62
     7
370
    30
100
AcDbLine
 10
5.7508219376
 20
4.0608262914
 30
0.0
 11
5.7621969795
 21
4.0673936556
 31
0.0
  0
LINE
  5
642
330
1F
100
AcDbEntity
  8
0
  6
Continuous
 62
     7
370
    30
100
AcDbLine
 10
5.9297270609
 20
4.110260747
 30
0.0
 11
5.9297270609
 21
4.104404268
 31
0.0
  0
LINE
  5
643
330
1F
100
AcDbEntity
  8
0
  6
Continuous
 62
     7
370
    30
100
AcDbLine
 10
5.7418358114
 20
4.2611314108
 30
0.0
 11
5.7418358114
 21
4.2669878898
 31
0.0
  0
LINE
  5
644
330
1F
100
AcDbEntity
  8
0
  6
Continuous
 62
     7
370
    30
100
AcDbLine
 10
7.0121961028
 20
4.1437060807
 30
0.0
 11
6.991835778
 21
4.1554611315
 31
0.0
  0
LINE
  5
645
330
1F
100
AcDbEntity
  8
0
  6
Continuous
 62
     7
370
    30
100
AcDbLine
 10
6.991835778
 20
4.1260941841
 30
0.0
 11
7.0121961028
 21
4.1378493083
 31
0.0
  0
ARC
  5
646
330
1F
100
AcDbEntity
  8
0
  6
Continuous
 62
     7
370
    30
100
AcDbCircle
 10
7.2737659797
 20
4.2519663963
 30
0.0
 40
0.0620000000000003
100
AcDbArc
 50
360.0
 51
90.0
  0
LINE
  5
647
330
1F
100
AcDbEntity
  8
0
  6
Continuous
 62
     7
370
    30
100
AcDbLine
 10
7.3357660182
 20
4.25196639
 30
0.0
 11
7.3357660182
 21
4.2503774217
 31
0.0
  0
ARC
  5
648
330
1F
100
AcDbEntity
  8
0
  6
Continuous
 62
     7
370
    30
100
AcDbCircle
 10
7.3257659797
 20
4.250377417
 30
0.0
 40
0.00999999999999
100
AcDbArc
 50
246.7301760415
 51
0.0
  0
LINE
  5
649
330
1F
100
AcDbEntity
  8
0
  6
Continuous
 62
     7
370
    30
100
AcDbLine
 10
7.2582660468
 20
3.9389663992
 30
0.0
 11
6.9132660323
 21
3.9389663992
 31
0.0
  0
LINE
  5
64A
330
1F
100
AcDbEntity
  8
0
  6
Continuous
 62
     7
370
    30
100
AcDbLine
 10
6.9132660323
 20
4.1038501678
 30
0.0
 11
6.9132660323
 21
3.9389663992
 31
0.0
  0
ARC
  5
64B
330
1F
100
AcDbEntity
  8
0
  6
Continuous
 62
     7
370
    30
100
AcDbCircle
 10
6.9332659797
 20
4.1038501707
 30
0.0
 40
0.019999999999998
100
AcDbArc
 50
127.5815576187
 51
180.0
  0
ARC
  5
64C
330
1F
100
AcDbEntity
  8
0
  6
Continuous
 62
     7
370
    30
100
AcDbCircle
 10
6.8457659797
 20
4.250377417
 30
0.0
 40
0.0099999999999989
100
AcDbArc
 50
180.0
 51
293.2698239585
  0
LINE
  5
64D
330
1F
100
AcDbEntity
  8
0
  6
Continuous
 62
     7
370
    30
100
AcDbLine
 10
6.8357659143
 20
4.25196639
 30
0.0
 11
6.8357659143
 21
4.2503774217
 31
0.0
  0
LINE
  5
64E
330
1F
100
AcDbEntity
  8
0
  6
Continuous
 62
     7
370
    30
100
AcDbLine
 10
7.0121961028
 20
4.2435195143
 30
0.0
 11
7.0121961028
 21
4.24937636
 31
0.0
  0
ARC
  5
64F
330
1F
100
AcDbEntity
  8
0
  6
Continuous
 62
     7
370
    30
100
AcDbCircle
 10
7.2937659797
 20
4.1759663963
 30
0.0
 40
0.0710000000000088
100
AcDbArc
 50
66.7301760415
 51
232.4184423812
  0
ARC
  5
650
330
1F
100
AcDbEntity
  8
0
  6
Continuous
 62
     7
370
    30
100
AcDbCircle
 10
7.2382659797
 20
4.1038501707
 30
0.0
 40
0.0199999999999997
100
AcDbArc
 50
0.0
 51
52.4184423812
  0
LINE
  5
651
330
1F
100
AcDbEntity
  8
0
  6
Continuous
 62
     7
370
    30
100
AcDbLine
 10
7.1766466964
 20
4.3139663671
 30
0.0
 11
7.1593666293
 21
4.3039897757
 31
0.0
  0
LINE
  5
652
330
1F
100
AcDbEntity
  8
0
  6
Continuous
 62
     7
370
    30
100
AcDbLine
 10
7.0121961028
 20
4.1084826542
 30
0.0
 11
6.991835778
 21
4.1202377051
 31
0.0
  0
LINE
  5
653
330
1F
100
AcDbEntity
  8
0
  6
Continuous
 62
     7
370
    30
100
AcDbLine
 10
7.1797271008
 20
4.2805214002
 30
0.0
 11
7.1593666293
 21
4.2687663493
 31
0.0
  0
LINE
  5
654
330
1F
100
AcDbEntity
  8
0
  6
Continuous
 62
     7
370
    30
100
AcDbLine
 10
7.1593666293
 20
4.2687663493
 30
0.0
 11
7.1593666293
 21
4.2629095036
 31
0.0
  0
LINE
  5
655
330
1F
100
AcDbEntity
  8
0
  6
Continuous
 62
     7
370
    30
100
AcDbLine
 10
7.1593666293
 20
4.2629095036
 30
0.0
 11
7.1797271008
 21
4.2511544528
 31
0.0
  0
LINE
  5
656
330
1F
100
AcDbEntity
  8
0
  6
Continuous
 62
     7
370
    30
100
AcDbLine
 10
7.1797271008
 20
4.2452979737
 30
0.0
 11
7.1593666293
 21
4.2335429229
 31
0.0
  0
LINE
  5
657
330
1F
100
AcDbEntity
  8
0
  6
Continuous
 62
     7
370
    30
100
AcDbLine
 10
7.0121969828
 20
4.0732587878
 30
0.0
 11
6.991835778
 21
4.0850142787
 31
0.0
  0
LINE
  5
658
330
1F
100
AcDbEntity
  8
0
  6
Continuous
 62
     7
370
    30
100
AcDbLine
 10
7.1593666293
 20
4.1572392243
 30
0.0
 11
7.1797271008
 21
4.1454841735
 31
0.0
  0
LINE
  5
659
330
1F
100
AcDbEntity
  8
0
  6
Continuous
 62
     7
370
    30
100
AcDbLine
 10
7.1593666293
 20
4.1220157979
 30
0.0
 11
7.1797271008
 21
4.110260747
 31
0.0
  0
LINE
  5
65A
330
1F
100
AcDbEntity
  8
0
  6
Continuous
 62
     7
370
    30
100
AcDbLine
 10
7.2582660468
 20
3.9389663992
 30
0.0
 11
7.2582660468
 21
4.1038501678
 31
0.0
  0
LINE
  5
65B
330
1F
100
AcDbEntity
  8
0
  6
Continuous
 62
     7
370
    30
100
AcDbLine
 10
7.1797271008
 20
4.104404268
 30
0.0
 11
7.1593666293
 21
4.0926492172
 31
0.0
  0
LINE
  5
65C
330
1F
100
AcDbEntity
  8
0
  6
Continuous
 62
     7
370
    30
100
AcDbLine
 10
7.1593666293
 20
4.0867924448
 30
0.0
 11
7.1797271008
 21
4.0750373206
 31
0.0
  0
LINE
  5
65D
330
1F
100
AcDbEntity
  8
0
  6
Continuous
 62
     7
370
    30
100
AcDbLine
 10
7.1677659856
 20
3.9989663794
 30
0.0
 11
7.0037659468
 21
3.9989663794
 31
0.0
  0
LINE
  5
65E
330
1F
100
AcDbEntity
  8
0
  6
Continuous
 62
     7
370
    30
100
AcDbLine
 10
7.1593666293
 20
4.2981329301
 30
0.0
 11
7.1797271008
 21
4.2863778792
 31
0.0
  0
LINE
  5
65F
330
1F
100
AcDbEntity
  8
0
  6
Continuous
 62
     7
370
    30
100
AcDbLine
 10
6.991835778
 20
4.1613176106
 30
0.0
 11
7.0121961028
 21
4.1730727348
 31
0.0
  0
LINE
  5
660
330
1F
100
AcDbEntity
  8
0
  6
Continuous
 62
     7
370
    30
100
AcDbLine
 10
7.1797271008
 20
4.0691808416
 30
0.0
 11
7.1751257806
 21
4.0665242989
 31
0.0
  0
LINE
  5
661
330
1F
100
AcDbEntity
  8
0
  6
Continuous
 62
     7
370
    30
100
AcDbLine
 10
6.991835778
 20
4.190684558
 30
0.0
 11
6.991835778
 21
4.196541037
 31
0.0
  0
LINE
  5
662
330
1F
100
AcDbEntity
  8
0
  6
Continuous
 62
     7
370
    30
100
AcDbLine
 10
7.0121961028
 20
4.2082961612
 30
0.0
 11
7.0121961028
 21
4.2141529335
 31
0.0
  0
LINE
  5
663
330
1F
100
AcDbEntity
  8
0
  6
Continuous
 62
     7
370
    30
100
AcDbLine
 10
6.991835778
 20
4.2259079844
 30
0.0
 11
6.991835778
 21
4.2317644634
 31
0.0
  0
LINE
  5
664
330
1F
100
AcDbEntity
  8
0
  6
Continuous
 62
     7
370
    30
100
AcDbLine
 10
6.991835778
 20
4.2611314108
 30
0.0
 11
6.991835778
 21
4.2669878898
 31
0.0
  0
LINE
  5
665
330
1F
100
AcDbEntity
  8
0
  6
Continuous
 62
     7
370
    30
100
AcDbLine
 10
7.0121961028
 20
4.2845997864
 30
0.0
 11
6.991835778
 21
4.2963548373
 31
0.0
  0
LINE
  5
666
330
1F
100
AcDbEntity
  8
0
  6
Continuous
 62
     7
370
    30
100
AcDbLine
 10
7.0121961028
 20
4.2787429407
 30
0.0
 11
7.0121961028
 21
4.2845997864
 31
0.0
  0
LINE
  5
667
330
1F
100
AcDbEntity
  8
0
  6
Continuous
 62
     7
370
    30
100
AcDbLine
 10
6.991835778
 20
4.3022113163
 30
0.0
 11
7.0121961028
 21
4.3139663671
 31
0.0
  0
LINE
  5
668
330
1F
100
AcDbEntity
  8
0
  6
Continuous
 62
     7
370
    30
100
AcDbLine
 10
6.991835778
 20
4.2963548373
 30
0.0
 11
6.991835778
 21
4.3022113163
 31
0.0
  0
ARC
  5
669
330
1F
100
AcDbEntity
  8
0
  6
Continuous
 62
     7
370
    30
100
AcDbCircle
 10
7.1847989147
 20
4.0639884185
 30
0.0
 40
0.0100000000000086
100
AcDbArc
 50
165.3098749059
 51
203.8403348298
  0
ARC
  5
66A
330
1F
100
AcDbEntity
  8
0
  6
Continuous
 62
     7
370
    30
100
AcDbCircle
 10
7.0037659797
 20
4.0299663963
 30
0.0
 40
0.0310000000000006
100
AcDbArc
 50
95.4495226951
 51
270.0
  0
LINE
  5
66B
330
1F
100
AcDbEntity
  8
0
  6
Continuous
 62
     7
370
    30
100
AcDbLine
 10
7.1797271008
 20
4.2511544528
 30
0.0
 11
7.1797271008
 21
4.2452979737
 31
0.0
  0
LINE
  5
66C
330
1F
100
AcDbEntity
  8
0
  6
Continuous
 62
     7
370
    30
100
AcDbLine
 10
7.1593666293
 20
4.2335429229
 30
0.0
 11
7.1593666293
 21
4.2276860772
 31
0.0
  0
LINE
  5
66D
330
1F
100
AcDbEntity
  8
0
  6
Continuous
 62
     7
370
    30
100
AcDbLine
 10
7.1593666293
 20
4.2276860772
 30
0.0
 11
7.1797271008
 21
4.2159310263
 31
0.0
  0
LINE
  5
66E
330
1F
100
AcDbEntity
  8
0
  6
Continuous
 62
     7
370
    30
100
AcDbLine
 10
7.1797271008
 20
4.2100745473
 30
0.0
 11
7.1593666293
 21
4.1983194964
 31
0.0
  0
LINE
  5
66F
330
1F
100
AcDbEntity
  8
0
  6
Continuous
 62
     7
370
    30
100
AcDbLine
 10
7.1593666293
 20
4.1983194964
 30
0.0
 11
7.1593666293
 21
4.1924626508
 31
0.0
  0
LINE
  5
670
330
1F
100
AcDbEntity
  8
0
  6
Continuous
 62
     7
370
    30
100
AcDbLine
 10
7.1797271008
 20
4.1807075999
 30
0.0
 11
7.1797271008
 21
4.1748511209
 31
0.0
  0
LINE
  5
671
330
1F
100
AcDbEntity
  8
0
  6
Continuous
 62
     7
370
    30
100
AcDbLine
 10
7.1797271008
 20
4.1748511209
 30
0.0
 11
7.1593666293
 21
4.16309607
 31
0.0
  0
LINE
  5
672
330
1F
100
AcDbEntity
  8
0
  6
Continuous
 62
     7
370
    30
100
AcDbLine
 10
7.1593666293
 20
4.16309607
 30
0.0
 11
7.1593666293
 21
4.1572392243
 31
0.0
  0
LINE
  5
673
330
1F
100
AcDbEntity
  8
0
  6
Continuous
 62
     7
370
    30
100
AcDbLine
 10
7.1797271008
 20
4.1454841735
 30
0.0
 11
7.1797271008
 21
4.1396276945
 31
0.0
  0
LINE
  5
674
330
1F
100
AcDbEntity
  8
0
  6
Continuous
 62
     7
370
    30
100
AcDbLine
 10
7.1797271008
 20
4.1396276945
 30
0.0
 11
7.1593666293
 21
4.1278726436
 31
0.0
  0
LINE
  5
675
330
1F
100
AcDbEntity
  8
0
  6
Continuous
 62
     7
370
    30
100
AcDbLine
 10
7.1593666293
 20
4.1278726436
 30
0.0
 11
7.1593666293
 21
4.1220157979
 31
0.0
  0
LINE
  5
676
330
1F
100
AcDbEntity
  8
0
  6
Continuous
 62
     7
370
    30
100
AcDbLine
 10
7.1797271008
 20
4.110260747
 30
0.0
 11
7.1797271008
 21
4.104404268
 31
0.0
  0
LINE
  5
677
330
1F
100
AcDbEntity
  8
0
  6
Continuous
 62
     7
370
    30
100
AcDbLine
 10
7.1593666293
 20
4.0926492172
 30
0.0
 11
7.1593666293
 21
4.0867924448
 31
0.0
  0
LINE
  5
678
330
1F
100
AcDbEntity
  8
0
  6
Continuous
 62
     7
370
    30
100
AcDbLine
 10
7.1797271008
 20
4.0750373206
 30
0.0
 11
7.1797271008
 21
4.0691808416
 31
0.0
  0
LINE
  5
679
330
1F
100
AcDbEntity
  8
0
  6
Continuous
 62
     7
370
    30
100
AcDbLine
 10
7.0008219408
 20
4.0608262914
 30
0.0
 11
7.0121969828
 21
4.0673936556
 31
0.0
  0
LINE
  5
67A
330
1F
100
AcDbEntity
  8
0
  6
Continuous
 62
     7
370
    30
100
AcDbLine
 10
6.991835778
 20
4.090870831
 30
0.0
 11
7.0121961028
 21
4.1026258819
 31
0.0
  0
LINE
  5
67B
330
1F
100
AcDbEntity
  8
0
  6
Continuous
 62
     7
370
    30
100
AcDbLine
 10
7.1797271008
 20
4.2159310263
 30
0.0
 11
7.1797271008
 21
4.2100745473
 31
0.0
  0
LINE
  5
67C
330
1F
100
AcDbEntity
  8
0
  6
Continuous
 62
     7
370
    30
100
AcDbLine
 10
7.0121961028
 20
4.1789295071
 30
0.0
 11
6.991835778
 21
4.190684558
 31
0.0
  0
LINE
  5
67D
330
1F
100
AcDbEntity
  8
0
  6
Continuous
 62
     7
370
    30
100
AcDbLine
 10
6.991835778
 20
4.196541037
 30
0.0
 11
7.0121961028
 21
4.2082961612
 31
0.0
  0
LINE
  5
67E
330
1F
100
AcDbEntity
  8
0
  6
Continuous
 62
     7
370
    30
100
AcDbLine
 10
7.0121961028
 20
4.2141529335
 30
0.0
 11
6.991835778
 21
4.2259079844
 31
0.0
  0
LINE
  5
67F
330
1F
100
AcDbEntity
  8
0
  6
Continuous
 62
     7
370
    30
100
AcDbLine
 10
6.991835778
 20
4.2317644634
 30
0.0
 11
7.0121961028
 21
4.2435195143
 31
0.0
  0
LINE
  5
680
330
1F
100
AcDbEntity
  8
0
  6
Continuous
 62
     7
370
    30
100
AcDbLine
 10
6.991835778
 20
4.2669878898
 30
0.0
 11
7.0121961028
 21
4.2787429407
 31
0.0
  0
LINE
  5
681
330
1F
100
AcDbEntity
  8
0
  6
Continuous
 62
     7
370
    30
100
AcDbLine
 10
7.1593666293
 20
4.3039897757
 30
0.0
 11
7.1593666293
 21
4.2981329301
 31
0.0
  0
LINE
  5
682
330
1F
100
AcDbEntity
  8
0
  6
Continuous
 62
     7
370
    30
100
AcDbLine
 10
7.1593666293
 20
4.1924626508
 30
0.0
 11
7.1797271008
 21
4.1807075999
 31
0.0
  0
LINE
  5
683
330
1F
100
AcDbEntity
  8
0
  6
Continuous
 62
     7
370
    30
100
AcDbLine
 10
6.991835778
 20
4.1554611315
 30
0.0
 11
6.991835778
 21
4.1613176106
 31
0.0
  0
ARC
  5
684
330
1F
100
AcDbEntity
  8
0
  6
Continuous
 62
     7
370
    30
100
AcDbCircle
 10
6.8777659797
 20
4.1759663963
 30
0.0
 40
0.0710000000000106
100
AcDbArc
 50
307.5815576188
 51
113.2698239585
  0
LINE
  5
685
330
1F
100
AcDbEntity
  8
0
  6
Continuous
 62
     7
370
    30
100
AcDbLine
 10
7.0121961028
 20
4.24937636
 30
0.0
 11
6.991835778
 21
4.2611314108
 31
0.0
  0
ARC
  5
686
330
1F
100
AcDbEntity
  8
0
  6
Continuous
 62
     7
370
    30
100
AcDbCircle
 10
6.8977659797
 20
4.2519663963
 30
0.0
 40
0.0620000000000003
100
AcDbArc
 50
90.0
 51
180.0
  0
LINE
  5
687
330
1F
100
AcDbEntity
  8
0
  6
Continuous
 62
     7
370
    30
100
AcDbLine
 10
7.1797271008
 20
4.2863778792
 30
0.0
 11
7.1797271008
 21
4.2805214002
 31
0.0
  0
LINE
  5
688
330
1F
100
AcDbEntity
  8
0
  6
Continuous
 62
     7
370
    30
100
AcDbLine
 10
7.0121969828
 20
4.0673936556
 30
0.0
 11
7.0121969828
 21
4.0732587878
 31
0.0
  0
LINE
  5
689
330
1F
100
AcDbEntity
  8
0
  6
Continuous
 62
     7
370
    30
100
AcDbLine
 10
6.991835778
 20
4.1202377051
 30
0.0
 11
6.991835778
 21
4.1260941841
 31
0.0
  0
ARC
  5
68A
330
1F
100
AcDbEntity
  8
0
  6
Continuous
 62
     7
370
    30
100
AcDbCircle
 10
7.1677659797
 20
4.0299663963
 30
0.0
 40
0.0310000000000006
100
AcDbArc
 50
270.0
 51
75.2623825484
  0
LINE
  5
68B
330
1F
100
AcDbEntity
  8
0
  6
Continuous
 62
     7
370
    30
100
AcDbLine
 10
6.991835778
 20
4.0850142787
 30
0.0
 11
6.991835778
 21
4.090870831
 31
0.0
  0
LINE
  5
68C
330
1F
100
AcDbEntity
  8
0
  6
Continuous
 62
     7
370
    30
100
AcDbLine
 10
7.0121961028
 20
4.1026258819
 30
0.0
 11
7.0121961028
 21
4.1084826542
 31
0.0
  0
LINE
  5
68D
330
1F
100
AcDbEntity
  8
0
  6
Continuous
 62
     7
370
    30
100
AcDbLine
 10
7.0121961028
 20
4.1730727348
 30
0.0
 11
7.0121961028
 21
4.1789295071
 31
0.0
  0
LINE
  5
68E
330
1F
100
AcDbEntity
  8
0
  6
Continuous
 62
     7
370
    30
100
AcDbLine
 10
7.0121961028
 20
4.1378493083
 30
0.0
 11
7.0121961028
 21
4.1437060807
 31
0.0
  0
LINE
  5
68F
330
1F
100
AcDbEntity
  8
0
  6
Continuous
 62
     7
370
    30
100
AcDbLine
 10
4.4918357715
 20
4.2963548373
 30
0.0
 11
4.4918357715
 21
4.3022113163
 31
0.0
  0
LINE
  5
690
330
1F
100
AcDbEntity
  8
0
  6
Continuous
 62
     7
370
    30
100
AcDbLine
 10
4.5121961697
 20
4.2787429407
 30
0.0
 11
4.5121961697
 21
4.2845997864
 31
0.0
  0
LINE
  5
691
330
1F
100
AcDbEntity
  8
0
  6
Continuous
 62
     7
370
    30
100
AcDbLine
 10
4.4918357715
 20
4.2611314108
 30
0.0
 11
4.4918357715
 21
4.2669878898
 31
0.0
  0
LINE
  5
692
330
1F
100
AcDbEntity
  8
0
  6
Continuous
 62
     7
370
    30
100
AcDbLine
 10
4.4918357715
 20
4.2259079844
 30
0.0
 11
4.4918357715
 21
4.2317644634
 31
0.0
  0
LINE
  5
693
330
1F
100
AcDbEntity
  8
0
  6
Continuous
 62
     7
370
    30
100
AcDbLine
 10
4.5121961697
 20
4.2082961612
 30
0.0
 11
4.5121961697
 21
4.2141529335
 31
0.0
  0
LINE
  5
694
330
1F
100
AcDbEntity
  8
0
  6
Continuous
 62
     7
370
    30
100
AcDbLine
 10
4.4918357715
 20
4.190684558
 30
0.0
 11
4.4918357715
 21
4.196541037
 31
0.0
  0
LINE
  5
695
330
1F
100
AcDbEntity
  8
0
  6
Continuous
 62
     7
370
    30
100
AcDbLine
 10
4.4918357715
 20
4.090870831
 30
0.0
 11
4.5121961697
 21
4.1026258819
 31
0.0
  0
LINE
  5
696
330
1F
100
AcDbEntity
  8
0
  6
Continuous
 62
     7
370
    30
100
AcDbLine
 10
4.4918357715
 20
4.0850142787
 30
0.0
 11
4.4918357715
 21
4.090870831
 31
0.0
  0
LINE
  5
697
330
1F
100
AcDbEntity
  8
0
  6
Continuous
 62
     7
370
    30
100
AcDbLine
 10
4.5121969763
 20
4.0732587878
 30
0.0
 11
4.4918357715
 21
4.0850142787
 31
0.0
  0
LINE
  5
698
330
1F
100
AcDbEntity
  8
0
  6
Continuous
 62
     7
370
    30
100
AcDbLine
 10
4.5008219344
 20
4.0608262914
 30
0.0
 11
4.5121969763
 21
4.0673936556
 31
0.0
  0
ARC
  5
699
330
1F
100
AcDbEntity
  8
0
  6
Continuous
 62
     7
370
    30
100
AcDbCircle
 10
4.5037659797
 20
4.0299663963
 30
0.0
 40
0.0310000000000006
100
AcDbArc
 50
95.4495226951
 51
270.0
  0
LINE
  5
69A
330
1F
100
AcDbEntity
  8
0
  6
Continuous
 62
     7
370
    30
100
AcDbLine
 10
4.6677659792
 20
3.9989663794
 30
0.0
 11
4.5037660137
 21
3.9989663794
 31
0.0
  0
ARC
  5
69B
330
1F
100
AcDbEntity
  8
0
  6
Continuous
 62
     7
370
    30
100
AcDbCircle
 10
4.6847989147
 20
4.0639884185
 30
0.0
 40
0.0100000000000086
100
AcDbArc
 50
165.3098749059
 51
203.8403348298
  0
LINE
  5
69C
330
1F
100
AcDbEntity
  8
0
  6
Continuous
 62
     7
370
    30
100
AcDbLine
 10
4.6797270577
 20
4.0691808416
 30
0.0
 11
4.6751258108
 21
4.0665242989
 31
0.0
  0
LINE
  5
69D
330
1F
100
AcDbEntity
  8
0
  6
Continuous
 62
     7
370
    30
100
AcDbLine
 10
4.6797270577
 20
4.0750373206
 30
0.0
 11
4.6797270577
 21
4.0691808416
 31
0.0
  0
LINE
  5
69E
330
1F
100
AcDbEntity
  8
0
  6
Continuous
 62
     7
370
    30
100
AcDbLine
 10
4.6593666962
 20
4.0867924448
 30
0.0
 11
4.6797270577
 21
4.0750373206
 31
0.0
  0
LINE
  5
69F
330
1F
100
AcDbEntity
  8
0
  6
Continuous
 62
     7
370
    30
100
AcDbLine
 10
4.6593666962
 20
4.0926492172
 30
0.0
 11
4.6593666962
 21
4.0867924448
 31
0.0
  0
LINE
  5
6A0
330
1F
100
AcDbEntity
  8
0
  6
Continuous
 62
     7
370
    30
100
AcDbLine
 10
4.6797270577
 20
4.104404268
 30
0.0
 11
4.6593666962
 21
4.0926492172
 31
0.0
  0
LINE
  5
6A1
330
1F
100
AcDbEntity
  8
0
  6
Continuous
 62
     7
370
    30
100
AcDbLine
 10
4.6797270577
 20
4.110260747
 30
0.0
 11
4.6797270577
 21
4.104404268
 31
0.0
  0
LINE
  5
6A2
330
1F
100
AcDbEntity
  8
0
  6
Continuous
 62
     7
370
    30
100
AcDbLine
 10
4.6593666962
 20
4.1278726436
 30
0.0
 11
4.6593666962
 21
4.1220157979
 31
0.0
  0
LINE
  5
6A3
330
1F
100
AcDbEntity
  8
0
  6
Continuous
 62
     7
370
    30
100
AcDbLine
 10
4.6797270577
 20
4.1396276945
 30
0.0
 11
4.6593666962
 21
4.1278726436
 31
0.0
  0
LINE
  5
6A4
330
1F
100
AcDbEntity
  8
0
  6
Continuous
 62
     7
370
    30
100
AcDbLine
 10
4.6797270577
 20
4.1454841735
 30
0.0
 11
4.6797270577
 21
4.1396276945
 31
0.0
  0
LINE
  5
6A5
330
1F
100
AcDbEntity
  8
0
  6
Continuous
 62
     7
370
    30
100
AcDbLine
 10
4.6593666962
 20
4.16309607
 30
0.0
 11
4.6593666962
 21
4.1572392243
 31
0.0
  0
LINE
  5
6A6
330
1F
100
AcDbEntity
  8
0
  6
Continuous
 62
     7
370
    30
100
AcDbLine
 10
4.6797270577
 20
4.1748511209
 30
0.0
 11
4.6593666962
 21
4.16309607
 31
0.0
  0
LINE
  5
6A7
330
1F
100
AcDbEntity
  8
0
  6
Continuous
 62
     7
370
    30
100
AcDbLine
 10
4.6797270577
 20
4.1807075999
 30
0.0
 11
4.6797270577
 21
4.1748511209
 31
0.0
  0
LINE
  5
6A8
330
1F
100
AcDbEntity
  8
0
  6
Continuous
 62
     7
370
    30
100
AcDbLine
 10
4.6593666962
 20
4.1924626508
 30
0.0
 11
4.6797270577
 21
4.1807075999
 31
0.0
  0
LINE
  5
6A9
330
1F
100
AcDbEntity
  8
0
  6
Continuous
 62
     7
370
    30
100
AcDbLine
 10
4.6593666962
 20
4.1983194964
 30
0.0
 11
4.6593666962
 21
4.1924626508
 31
0.0
  0
LINE
  5
6AA
330
1F
100
AcDbEntity
  8
0
  6
Continuous
 62
     7
370
    30
100
AcDbLine
 10
4.6797270577
 20
4.2100745473
 30
0.0
 11
4.6593666962
 21
4.1983194964
 31
0.0
  0
LINE
  5
6AB
330
1F
100
AcDbEntity
  8
0
  6
Continuous
 62
     7
370
    30
100
AcDbLine
 10
4.6593666962
 20
4.2276860772
 30
0.0
 11
4.6797270577
 21
4.2159310263
 31
0.0
  0
LINE
  5
6AC
330
1F
100
AcDbEntity
  8
0
  6
Continuous
 62
     7
370
    30
100
AcDbLine
 10
4.6797270577
 20
4.2452979737
 30
0.0
 11
4.6593666962
 21
4.2335429229
 31
0.0
  0
LINE
  5
6AD
330
1F
100
AcDbEntity
  8
0
  6
Continuous
 62
     7
370
    30
100
AcDbLine
 10
4.6797270577
 20
4.2511544528
 30
0.0
 11
4.6797270577
 21
4.2452979737
 31
0.0
  0
LINE
  5
6AE
330
1F
100
AcDbEntity
  8
0
  6
Continuous
 62
     7
370
    30
100
AcDbLine
 10
4.6593666962
 20
4.2629095036
 30
0.0
 11
4.6797270577
 21
4.2511544528
 31
0.0
  0
LINE
  5
6AF
330
1F
100
AcDbEntity
  8
0
  6
Continuous
 62
     7
370
    30
100
AcDbLine
 10
4.6593666962
 20
4.2687663493
 30
0.0
 11
4.6593666962
 21
4.2629095036
 31
0.0
  0
LINE
  5
6B0
330
1F
100
AcDbEntity
  8
0
  6
Continuous
 62
     7
370
    30
100
AcDbLine
 10
4.6797270577
 20
4.2805214002
 30
0.0
 11
4.6593666962
 21
4.2687663493
 31
0.0
  0
LINE
  5
6B1
330
1F
100
AcDbEntity
  8
0
  6
Continuous
 62
     7
370
    30
100
AcDbLine
 10
4.6797270577
 20
4.2863778792
 30
0.0
 11
4.6797270577
 21
4.2805214002
 31
0.0
  0
LINE
  5
6B2
330
1F
100
AcDbEntity
  8
0
  6
Continuous
 62
     7
370
    30
100
AcDbLine
 10
4.6593666962
 20
4.2981329301
 30
0.0
 11
4.6797270577
 21
4.2863778792
 31
0.0
  0
LINE
  5
6B3
330
1F
100
AcDbEntity
  8
0
  6
Continuous
 62
     7
370
    30
100
AcDbLine
 10
4.8357659751
 20
4.25196639
 30
0.0
 11
4.8357659751
 21
4.2503774217
 31
0.0
  0
ARC
  5
6B4
330
1F
100
AcDbEntity
  8
0
  6
Continuous
 62
     7
370
    30
100
AcDbCircle
 10
4.8257659797
 20
4.250377417
 30
0.0
 40
0.0099999999999909
100
AcDbArc
 50
246.7301760415
 51
0.0
  0
ARC
  5
6B5
330
1F
100
AcDbEntity
  8
0
  6
Continuous
 62
     7
370
    30
100
AcDbCircle
 10
4.7382659797
 20
4.1038501707
 30
0.0
 40
0.0199999999999997
100
AcDbArc
 50
360.0
 51
52.4184423812
  0
LINE
  5
6B6
330
1F
100
AcDbEntity
  8
0
  6
Continuous
 62
     7
370
    30
100
AcDbLine
 10
4.758265967
 20
3.9389663992
 30
0.0
 11
4.4132659525
 21
3.9389663992
 31
0.0
  0
LINE
  5
6B7
330
1F
100
AcDbEntity
  8
0
  6
Continuous
 62
     7
370
    30
100
AcDbLine
 10
4.4132659525
 20
4.1038501678
 30
0.0
 11
4.4132659525
 21
3.9389663992
 31
0.0
  0
ARC
  5
6B8
330
1F
100
AcDbEntity
  8
0
  6
Continuous
 62
     7
370
    30
100
AcDbCircle
 10
4.3777659797
 20
4.1759663963
 30
0.0
 40
0.0710000000000112
100
AcDbArc
 50
307.5815576188
 51
113.2698239585
  0
LINE
  5
6B9
330
1F
100
AcDbEntity
  8
0
  6
Continuous
 62
     7
370
    30
100
AcDbLine
 10
4.3357659811
 20
4.25196639
 30
0.0
 11
4.3357659811
 21
4.2503774217
 31
0.0
  0
ARC
  5
6BA
330
1F
100
AcDbEntity
  8
0
  6
Continuous
 62
     7
370
    30
100
AcDbCircle
 10
4.3977659797
 20
4.2519663963
 30
0.0
 40
0.0620000000000003
100
AcDbArc
 50
90.0
 51
180.0
  0
LINE
  5
6BB
330
1F
100
AcDbEntity
  8
0
  6
Continuous
 62
     7
370
    30
100
AcDbLine
 10
4.5121961697
 20
4.2435195143
 30
0.0
 11
4.5121961697
 21
4.24937636
 31
0.0
  0
ARC
  5
6BC
330
1F
100
AcDbEntity
  8
0
  6
Continuous
 62
     7
370
    30
100
AcDbCircle
 10
4.4332659797
 20
4.1038501707
 30
0.0
 40
0.0199999999999987
100
AcDbArc
 50
127.5815576187
 51
180.0
  0
LINE
  5
6BD
330
1F
100
AcDbEntity
  8
0
  6
Continuous
 62
     7
370
    30
100
AcDbLine
 10
4.758265967
 20
3.9389663992
 30
0.0
 11
4.758265967
 21
4.1038501678
 31
0.0
  0
ARC
  5
6BE
330
1F
100
AcDbEntity
  8
0
  6
Continuous
 62
     7
370
    30
100
AcDbCircle
 10
4.7937659797
 20
4.1759663963
 30
0.0
 40
0.0710000000000088
100
AcDbArc
 50
66.7301760415
 51
232.4184423812
  0
ARC
  5
6BF
330
1F
100
AcDbEntity
  8
0
  6
Continuous
 62
     7
370
    30
100
AcDbCircle
 10
4.7737659797
 20
4.2519663963
 30
0.0
 40
0.0620000000000012
100
AcDbArc
 50
0.0
 51
90.0
  0
LINE
  5
6C0
330
1F
100
AcDbEntity
  8
0
  6
Continuous
 62
     7
370
    30
100
AcDbLine
 10
4.6593666962
 20
4.2335429229
 30
0.0
 11
4.6593666962
 21
4.2276860772
 31
0.0
  0
LINE
  5
6C1
330
1F
100
AcDbEntity
  8
0
  6
Continuous
 62
     7
370
    30
100
AcDbLine
 10
4.6593666962
 20
4.1220157979
 30
0.0
 11
4.6797270577
 21
4.110260747
 31
0.0
  0
LINE
  5
6C2
330
1F
100
AcDbEntity
  8
0
  6
Continuous
 62
     7
370
    30
100
AcDbLine
 10
4.5121961697
 20
4.1084826542
 30
0.0
 11
4.4918357715
 21
4.1202377051
 31
0.0
  0
LINE
  5
6C3
330
1F
100
AcDbEntity
  8
0
  6
Continuous
 62
     7
370
    30
100
AcDbLine
 10
4.5121961697
 20
4.1437060807
 30
0.0
 11
4.4918357715
 21
4.1554611315
 31
0.0
  0
LINE
  5
6C4
330
1F
100
AcDbEntity
  8
0
  6
Continuous
 62
     7
370
    30
100
AcDbLine
 10
4.4918357715
 20
4.1613176106
 30
0.0
 11
4.5121961697
 21
4.1730727348
 31
0.0
  0
LINE
  5
6C5
330
1F
100
AcDbEntity
  8
0
  6
Continuous
 62
     7
370
    30
100
AcDbLine
 10
4.5121961697
 20
4.1730727348
 30
0.0
 11
4.5121961697
 21
4.1789295071
 31
0.0
  0
LINE
  5
6C6
330
1F
100
AcDbEntity
  8
0
  6
Continuous
 62
     7
370
    30
100
AcDbLine
 10
4.5121961697
 20
4.1789295071
 30
0.0
 11
4.4918357715
 21
4.190684558
 31
0.0
  0
LINE
  5
6C7
330
1F
100
AcDbEntity
  8
0
  6
Continuous
 62
     7
370
    30
100
AcDbLine
 10
4.4918357715
 20
4.196541037
 30
0.0
 11
4.5121961697
 21
4.2082961612
 31
0.0
  0
LINE
  5
6C8
330
1F
100
AcDbEntity
  8
0
  6
Continuous
 62
     7
370
    30
100
AcDbLine
 10
4.4918357715
 20
4.2317644634
 30
0.0
 11
4.5121961697
 21
4.2435195143
 31
0.0
  0
LINE
  5
6C9
330
1F
100
AcDbEntity
  8
0
  6
Continuous
 62
     7
370
    30
100
AcDbLine
 10
4.4918357715
 20
4.2669878898
 30
0.0
 11
4.5121961697
 21
4.2787429407
 31
0.0
  0
LINE
  5
6CA
330
1F
100
AcDbEntity
  8
0
  6
Continuous
 62
     7
370
    30
100
AcDbLine
 10
4.5121961697
 20
4.2845997864
 30
0.0
 11
4.4918357715
 21
4.2963548373
 31
0.0
  0
LINE
  5
6CB
330
1F
100
AcDbEntity
  8
0
  6
Continuous
 62
     7
370
    30
100
AcDbLine
 10
4.4918357715
 20
4.3022113163
 30
0.0
 11
4.5121961697
 21
4.3139663671
 31
0.0
  0
LINE
  5
6CC
330
1F
100
AcDbEntity
  8
0
  6
Continuous
 62
     7
370
    30
100
AcDbLine
 10
4.6593666962
 20
4.3039897757
 30
0.0
 11
4.6593666962
 21
4.2981329301
 31
0.0
  0
LINE
  5
6CD
330
1F
100
AcDbEntity
  8
0
  6
Continuous
 62
     7
370
    30
100
AcDbLine
 10
4.4918357715
 20
4.1202377051
 30
0.0
 11
4.4918357715
 21
4.1260941841
 31
0.0
  0
LINE
  5
6CE
330
1F
100
AcDbEntity
  8
0
  6
Continuous
 62
     7
370
    30
100
AcDbLine
 10
4.4918357715
 20
4.1554611315
 30
0.0
 11
4.4918357715
 21
4.1613176106
 31
0.0
  0
LINE
  5
6CF
330
1F
100
AcDbEntity
  8
0
  6
Continuous
 62
     7
370
    30
100
AcDbLine
 10
4.6593666962
 20
4.1572392243
 30
0.0
 11
4.6797270577
 21
4.1454841735
 31
0.0
  0
ARC
  5
6D0
330
1F
100
AcDbEntity
  8
0
  6
Continuous
 62
     7
370
    30
100
AcDbCircle
 10
4.3457659797
 20
4.250377417
 30
0.0
 40
0.0099999999999989
100
AcDbArc
 50
180.0
 51
293.2698239585
  0
ARC
  5
6D1
330
1F
100
AcDbEntity
  8
0
  6
Continuous
 62
     7
370
    30
100
AcDbCircle
 10
4.6677659797
 20
4.0299663963
 30
0.0
 40
0.0310000000000001
100
AcDbArc
 50
270.0
 51
75.2623825484
  0
LINE
  5
6D2
330
1F
100
AcDbEntity
  8
0
  6
Continuous
 62
     7
370
    30
100
AcDbLine
 10
4.5121969763
 20
4.0673936556
 30
0.0
 11
4.5121969763
 21
4.0732587878
 31
0.0
  0
LINE
  5
6D3
330
1F
100
AcDbEntity
  8
0
  6
Continuous
 62
     7
370
    30
100
AcDbLine
 10
4.5121961697
 20
4.1378493083
 30
0.0
 11
4.5121961697
 21
4.1437060807
 31
0.0
  0
LINE
  5
6D4
330
1F
100
AcDbEntity
  8
0
  6
Continuous
 62
     7
370
    30
100
AcDbLine
 10
4.5121961697
 20
4.2141529335
 30
0.0
 11
4.4918357715
 21
4.2259079844
 31
0.0
  0
LINE
  5
6D5
330
1F
100
AcDbEntity
  8
0
  6
Continuous
 62
     7
370
    30
100
AcDbLine
 10
4.4918357715
 20
4.1260941841
 30
0.0
 11
4.5121961697
 21
4.1378493083
 31
0.0
  0
LINE
  5
6D6
330
1F
100
AcDbEntity
  8
0
  6
Continuous
 62
     7
370
    30
100
AcDbLine
 10
4.6797270577
 20
4.2159310263
 30
0.0
 11
4.6797270577
 21
4.2100745473
 31
0.0
  0
LINE
  5
6D7
330
1F
100
AcDbEntity
  8
0
  6
Continuous
 62
     7
370
    30
100
AcDbLine
 10
4.5121961697
 20
4.24937636
 30
0.0
 11
4.4918357715
 21
4.2611314108
 31
0.0
  0
LINE
  5
6D8
330
1F
100
AcDbEntity
  8
0
  6
Continuous
 62
     7
370
    30
100
AcDbLine
 10
4.5121961697
 20
4.1026258819
 30
0.0
 11
4.5121961697
 21
4.1084826542
 31
0.0
  0
LINE
  5
6D9
330
1F
100
AcDbEntity
  8
0
  6
Continuous
 62
     7
370
    30
100
AcDbLine
 10
4.6766467266
 20
4.3139663671
 30
0.0
 11
4.6593666962
 21
4.3039897757
 31
0.0
  0
LINE
  5
6DA
330
1F
100
AcDbEntity
  8
0
  6
Continuous
 62
     7
370
    30
100
AcDbLine
 10
3.241835805
 20
4.3022113163
 30
0.0
 11
3.2621961298
 21
4.3139663671
 31
0.0
  0
LINE
  5
6DB
330
1F
100
AcDbEntity
  8
0
  6
Continuous
 62
     7
370
    30
100
AcDbLine
 10
3.241835805
 20
4.2963548373
 30
0.0
 11
3.241835805
 21
4.3022113163
 31
0.0
  0
LINE
  5
6DC
330
1F
100
AcDbEntity
  8
0
  6
Continuous
 62
     7
370
    30
100
AcDbLine
 10
3.2621961298
 20
4.2845997864
 30
0.0
 11
3.241835805
 21
4.2963548373
 31
0.0
  0
LINE
  5
6DD
330
1F
100
AcDbEntity
  8
0
  6
Continuous
 62
     7
370
    30
100
AcDbLine
 10
3.2621961298
 20
4.2787429407
 30
0.0
 11
3.2621961298
 21
4.2845997864
 31
0.0
  0
LINE
  5
6DE
330
1F
100
AcDbEntity
  8
0
  6
Continuous
 62
     7
370
    30
100
AcDbLine
 10
3.241835805
 20
4.2669878898
 30
0.0
 11
3.2621961298
 21
4.2787429407
 31
0.0
  0
LINE
  5
6DF
330
1F
100
AcDbEntity
  8
0
  6
Continuous
 62
     7
370
    30
100
AcDbLine
 10
3.241835805
 20
4.2611314108
 30
0.0
 11
3.241835805
 21
4.2669878898
 31
0.0
  0
LINE
  5
6E0
330
1F
100
AcDbEntity
  8
0
  6
Continuous
 62
     7
370
    30
100
AcDbLine
 10
3.2621961298
 20
4.24937636
 30
0.0
 11
3.241835805
 21
4.2611314108
 31
0.0
  0
LINE
  5
6E1
330
1F
100
AcDbEntity
  8
0
  6
Continuous
 62
     7
370
    30
100
AcDbLine
 10
3.2621961298
 20
4.2435195143
 30
0.0
 11
3.2621961298
 21
4.24937636
 31
0.0
  0
LINE
  5
6E2
330
1F
100
AcDbEntity
  8
0
  6
Continuous
 62
     7
370
    30
100
AcDbLine
 10
3.241835805
 20
4.2317644634
 30
0.0
 11
3.2621961298
 21
4.2435195143
 31
0.0
  0
LINE
  5
6E3
330
1F
100
AcDbEntity
  8
0
  6
Continuous
 62
     7
370
    30
100
AcDbLine
 10
3.241835805
 20
4.2259079844
 30
0.0
 11
3.241835805
 21
4.2317644634
 31
0.0
  0
LINE
  5
6E4
330
1F
100
AcDbEntity
  8
0
  6
Continuous
 62
     7
370
    30
100
AcDbLine
 10
3.2621961298
 20
4.2141529335
 30
0.0
 11
3.241835805
 21
4.2259079844
 31
0.0
  0
LINE
  5
6E5
330
1F
100
AcDbEntity
  8
0
  6
Continuous
 62
     7
370
    30
100
AcDbLine
 10
3.2621961298
 20
4.2082961612
 30
0.0
 11
3.2621961298
 21
4.2141529335
 31
0.0
  0
LINE
  5
6E6
330
1F
100
AcDbEntity
  8
0
  6
Continuous
 62
     7
370
    30
100
AcDbLine
 10
3.241835805
 20
4.196541037
 30
0.0
 11
3.2621961298
 21
4.2082961612
 31
0.0
  0
LINE
  5
6E7
330
1F
100
AcDbEntity
  8
0
  6
Continuous
 62
     7
370
    30
100
AcDbLine
 10
3.241835805
 20
4.190684558
 30
0.0
 11
3.241835805
 21
4.196541037
 31
0.0
  0
LINE
  5
6E8
330
1F
100
AcDbEntity
  8
0
  6
Continuous
 62
     7
370
    30
100
AcDbLine
 10
3.2621961298
 20
4.1789295071
 30
0.0
 11
3.241835805
 21
4.190684558
 31
0.0
  0
LINE
  5
6E9
330
1F
100
AcDbEntity
  8
0
  6
Continuous
 62
     7
370
    30
100
AcDbLine
 10
3.2621961298
 20
4.1730727348
 30
0.0
 11
3.2621961298
 21
4.1789295071
 31
0.0
  0
LINE
  5
6EA
330
1F
100
AcDbEntity
  8
0
  6
Continuous
 62
     7
370
    30
100
AcDbLine
 10
3.241835805
 20
4.1613176106
 30
0.0
 11
3.2621961298
 21
4.1730727348
 31
0.0
  0
LINE
  5
6EB
330
1F
100
AcDbEntity
  8
0
  6
Continuous
 62
     7
370
    30
100
AcDbLine
 10
3.241835805
 20
4.1554611315
 30
0.0
 11
3.241835805
 21
4.1613176106
 31
0.0
  0
LINE
  5
6EC
330
1F
100
AcDbEntity
  8
0
  6
Continuous
 62
     7
370
    30
100
AcDbLine
 10
3.2621961298
 20
4.1437060807
 30
0.0
 11
3.241835805
 21
4.1554611315
 31
0.0
  0
LINE
  5
6ED
330
1F
100
AcDbEntity
  8
0
  6
Continuous
 62
     7
370
    30
100
AcDbLine
 10
3.2621961298
 20
4.1378493083
 30
0.0
 11
3.2621961298
 21
4.1437060807
 31
0.0
  0
LINE
  5
6EE
330
1F
100
AcDbEntity
  8
0
  6
Continuous
 62
     7
370
    30
100
AcDbLine
 10
3.241835805
 20
4.1260941841
 30
0.0
 11
3.2621961298
 21
4.1378493083
 31
0.0
  0
LINE
  5
6EF
330
1F
100
AcDbEntity
  8
0
  6
Continuous
 62
     7
370
    30
100
AcDbLine
 10
3.241835805
 20
4.1202377051
 30
0.0
 11
3.241835805
 21
4.1260941841
 31
0.0
  0
LINE
  5
6F0
330
1F
100
AcDbEntity
  8
0
  6
Continuous
 62
     7
370
    30
100
AcDbLine
 10
3.2621961298
 20
4.1084826542
 30
0.0
 11
3.241835805
 21
4.1202377051
 31
0.0
  0
LINE
  5
6F1
330
1F
100
AcDbEntity
  8
0
  6
Continuous
 62
     7
370
    30
100
AcDbLine
 10
3.2621961298
 20
4.1026258819
 30
0.0
 11
3.2621961298
 21
4.1084826542
 31
0.0
  0
LINE
  5
6F2
330
1F
100
AcDbEntity
  8
0
  6
Continuous
 62
     7
370
    30
100
AcDbLine
 10
3.241835805
 20
4.090870831
 30
0.0
 11
3.2621961298
 21
4.1026258819
 31
0.0
  0
LINE
  5
6F3
330
1F
100
AcDbEntity
  8
0
  6
Continuous
 62
     7
370
    30
100
AcDbLine
 10
3.241835805
 20
4.0850142787
 30
0.0
 11
3.241835805
 21
4.090870831
 31
0.0
  0
LINE
  5
6F4
330
1F
100
AcDbEntity
  8
0
  6
Continuous
 62
     7
370
    30
100
AcDbLine
 10
3.2621970098
 20
4.0732587878
 30
0.0
 11
3.241835805
 21
4.0850142787
 31
0.0
  0
LINE
  5
6F5
330
1F
100
AcDbEntity
  8
0
  6
Continuous
 62
     7
370
    30
100
AcDbLine
 10
3.2621970098
 20
4.0673936556
 30
0.0
 11
3.2621970098
 21
4.0732587878
 31
0.0
  0
LINE
  5
6F6
330
1F
100
AcDbEntity
  8
0
  6
Continuous
 62
     7
370
    30
100
AcDbLine
 10
3.2508219678
 20
4.0608262914
 30
0.0
 11
3.2621970098
 21
4.0673936556
 31
0.0
  0
ARC
  5
6F7
330
1F
100
AcDbEntity
  8
0
  6
Continuous
 62
     7
370
    30
100
AcDbCircle
 10
3.2537659797
 20
4.0299663963
 30
0.0
 40
0.0310000000000001
100
AcDbArc
 50
95.4495226951
 51
270.0
  0
LINE
  5
6F8
330
1F
100
AcDbEntity
  8
0
  6
Continuous
 62
     7
370
    30
100
AcDbLine
 10
3.4177660126
 20
3.9989663794
 30
0.0
 11
3.2537659738
 21
3.9989663794
 31
0.0
  0
ARC
  5
6F9
330
1F
100
AcDbEntity
  8
0
  6
Continuous
 62
     7
370
    30
100
AcDbCircle
 10
3.4177659797
 20
4.0299663963
 30
0.0
 40
0.0310000000000001
100
AcDbArc
 50
270.0
 51
75.2623825484
  0
ARC
  5
6FA
330
1F
100
AcDbEntity
  8
0
  6
Continuous
 62
     7
370
    30
100
AcDbCircle
 10
3.4347989147
 20
4.0639884185
 30
0.0
 40
0.0100000000000086
100
AcDbArc
 50
165.3098749059
 51
203.8403348298
  0
LINE
  5
6FB
330
1F
100
AcDbEntity
  8
0
  6
Continuous
 62
     7
370
    30
100
AcDbLine
 10
3.4297269811
 20
4.0691808416
 30
0.0
 11
3.4251258076
 21
4.0665242989
 31
0.0
  0
LINE
  5
6FC
330
1F
100
AcDbEntity
  8
0
  6
Continuous
 62
     7
370
    30
100
AcDbLine
 10
3.4297269811
 20
4.0750373206
 30
0.0
 11
3.4297269811
 21
4.0691808416
 31
0.0
  0
LINE
  5
6FD
330
1F
100
AcDbEntity
  8
0
  6
Continuous
 62
     7
370
    30
100
AcDbLine
 10
3.4093666563
 20
4.0867924448
 30
0.0
 11
3.4297269811
 21
4.0750373206
 31
0.0
  0
LINE
  5
6FE
330
1F
100
AcDbEntity
  8
0
  6
Continuous
 62
     7
370
    30
100
AcDbLine
 10
3.4093666563
 20
4.0926492172
 30
0.0
 11
3.4093666563
 21
4.0867924448
 31
0.0
  0
LINE
  5
6FF
330
1F
100
AcDbEntity
  8
0
  6
Continuous
 62
     7
370
    30
100
AcDbLine
 10
3.4297269811
 20
4.104404268
 30
0.0
 11
3.4093666563
 21
4.0926492172
 31
0.0
  0
LINE
  5
700
330
1F
100
AcDbEntity
  8
0
  6
Continuous
 62
     7
370
    30
100
AcDbLine
 10
3.4297269811
 20
4.110260747
 30
0.0
 11
3.4297269811
 21
4.104404268
 31
0.0
  0
LINE
  5
701
330
1F
100
AcDbEntity
  8
0
  6
Continuous
 62
     7
370
    30
100
AcDbLine
 10
3.4093666563
 20
4.1220157979
 30
0.0
 11
3.4297269811
 21
4.110260747
 31
0.0
  0
LINE
  5
702
330
1F
100
AcDbEntity
  8
0
  6
Continuous
 62
     7
370
    30
100
AcDbLine
 10
3.4093666563
 20
4.1278726436
 30
0.0
 11
3.4093666563
 21
4.1220157979
 31
0.0
  0
LINE
  5
703
330
1F
100
AcDbEntity
  8
0
  6
Continuous
 62
     7
370
    30
100
AcDbLine
 10
3.4297269811
 20
4.1396276945
 30
0.0
 11
3.4093666563
 21
4.1278726436
 31
0.0
  0
LINE
  5
704
330
1F
100
AcDbEntity
  8
0
  6
Continuous
 62
     7
370
    30
100
AcDbLine
 10
3.4297269811
 20
4.1454841735
 30
0.0
 11
3.4297269811
 21
4.1396276945
 31
0.0
  0
LINE
  5
705
330
1F
100
AcDbEntity
  8
0
  6
Continuous
 62
     7
370
    30
100
AcDbLine
 10
3.4093666563
 20
4.1572392243
 30
0.0
 11
3.4297269811
 21
4.1454841735
 31
0.0
  0
LINE
  5
706
330
1F
100
AcDbEntity
  8
0
  6
Continuous
 62
     7
370
    30
100
AcDbLine
 10
3.4093666563
 20
4.16309607
 30
0.0
 11
3.4093666563
 21
4.1572392243
 31
0.0
  0
LINE
  5
707
330
1F
100
AcDbEntity
  8
0
  6
Continuous
 62
     7
370
    30
100
AcDbLine
 10
3.4297269811
 20
4.1748511209
 30
0.0
 11
3.4093666563
 21
4.16309607
 31
0.0
  0
LINE
  5
708
330
1F
100
AcDbEntity
  8
0
  6
Continuous
 62
     7
370
    30
100
AcDbLine
 10
3.4297269811
 20
4.1807075999
 30
0.0
 11
3.4297269811
 21
4.1748511209
 31
0.0
  0
LINE
  5
709
330
1F
100
AcDbEntity
  8
0
  6
Continuous
 62
     7
370
    30
100
AcDbLine
 10
3.4093666563
 20
4.1924626508
 30
0.0
 11
3.4297269811
 21
4.1807075999
 31
0.0
  0
LINE
  5
70A
330
1F
100
AcDbEntity
  8
0
  6
Continuous
 62
     7
370
    30
100
AcDbLine
 10
3.4093666563
 20
4.1983194964
 30
0.0
 11
3.4093666563
 21
4.1924626508
 31
0.0
  0
LINE
  5
70B
330
1F
100
AcDbEntity
  8
0
  6
Continuous
 62
     7
370
    30
100
AcDbLine
 10
3.4297269811
 20
4.2100745473
 30
0.0
 11
3.4093666563
 21
4.1983194964
 31
0.0
  0
LINE
  5
70C
330
1F
100
AcDbEntity
  8
0
  6
Continuous
 62
     7
370
    30
100
AcDbLine
 10
3.4297269811
 20
4.2159310263
 30
0.0
 11
3.4297269811
 21
4.2100745473
 31
0.0
  0
LINE
  5
70D
330
1F
100
AcDbEntity
  8
0
  6
Continuous
 62
     7
370
    30
100
AcDbLine
 10
3.4093666563
 20
4.2276860772
 30
0.0
 11
3.4297269811
 21
4.2159310263
 31
0.0
  0
LINE
  5
70E
330
1F
100
AcDbEntity
  8
0
  6
Continuous
 62
     7
370
    30
100
AcDbLine
 10
3.4093666563
 20
4.2335429229
 30
0.0
 11
3.4093666563
 21
4.2276860772
 31
0.0
  0
LINE
  5
70F
330
1F
100
AcDbEntity
  8
0
  6
Continuous
 62
     7
370
    30
100
AcDbLine
 10
3.4297269811
 20
4.2452979737
 30
0.0
 11
3.4093666563
 21
4.2335429229
 31
0.0
  0
LINE
  5
710
330
1F
100
AcDbEntity
  8
0
  6
Continuous
 62
     7
370
    30
100
AcDbLine
 10
3.4297269811
 20
4.2511544528
 30
0.0
 11
3.4297269811
 21
4.2452979737
 31
0.0
  0
LINE
  5
711
330
1F
100
AcDbEntity
  8
0
  6
Continuous
 62
     7
370
    30
100
AcDbLine
 10
3.4093666563
 20
4.2629095036
 30
0.0
 11
3.4297269811
 21
4.2511544528
 31
0.0
  0
LINE
  5
712
330
1F
100
AcDbEntity
  8
0
  6
Continuous
 62
     7
370
    30
100
AcDbLine
 10
3.4093666563
 20
4.2687663493
 30
0.0
 11
3.4093666563
 21
4.2629095036
 31
0.0
  0
LINE
  5
713
330
1F
100
AcDbEntity
  8
0
  6
Continuous
 62
     7
370
    30
100
AcDbLine
 10
3.4297269811
 20
4.2805214002
 30
0.0
 11
3.4093666563
 21
4.2687663493
 31
0.0
  0
LINE
  5
714
330
1F
100
AcDbEntity
  8
0
  6
Continuous
 62
     7
370
    30
100
AcDbLine
 10
3.4297269811
 20
4.2863778792
 30
0.0
 11
3.4297269811
 21
4.2805214002
 31
0.0
  0
LINE
  5
715
330
1F
100
AcDbEntity
  8
0
  6
Continuous
 62
     7
370
    30
100
AcDbLine
 10
3.4093666563
 20
4.2981329301
 30
0.0
 11
3.4297269811
 21
4.2863778792
 31
0.0
  0
LINE
  5
716
330
1F
100
AcDbEntity
  8
0
  6
Continuous
 62
     7
370
    30
100
AcDbLine
 10
3.4093666563
 20
4.3039897757
 30
0.0
 11
3.4093666563
 21
4.2981329301
 31
0.0
  0
LINE
  5
717
330
1F
100
AcDbEntity
  8
0
  6
Continuous
 62
     7
370
    30
100
AcDbLine
 10
3.4266467234
 20
4.3139663671
 30
0.0
 11
3.4093666563
 21
4.3039897757
 31
0.0
  0
LINE
  5
718
330
1F
100
AcDbEntity
  8
0
  6
Continuous
 62
     7
370
    30
100
AcDbLine
 10
3.5857660452
 20
4.25196639
 30
0.0
 11
3.5857660452
 21
4.2503774217
 31
0.0
  0
ARC
  5
719
330
1F
100
AcDbEntity
  8
0
  6
Continuous
 62
     7
370
    30
100
AcDbCircle
 10
3.5757659797
 20
4.250377417
 30
0.0
 40
0.0099999999999905
100
AcDbArc
 50
246.7301760415
 51
0.0
  0
ARC
  5
71A
330
1F
100
AcDbEntity
  8
0
  6
Continuous
 62
     7
370
    30
100
AcDbCircle
 10
3.5437659797
 20
4.1759663963
 30
0.0
 40
0.0710000000000085
100
AcDbArc
 50
66.7301760415
 51
232.4184423812
  0
ARC
  5
71B
330
1F
100
AcDbEntity
  8
0
  6
Continuous
 62
     7
370
    30
100
AcDbCircle
 10
3.4882659797
 20
4.1038501707
 30
0.0
 40
0.0200000000000004
100
AcDbArc
 50
0.0
 51
52.4184423812
  0
LINE
  5
71C
330
1F
100
AcDbEntity
  8
0
  6
Continuous
 62
     7
370
    30
100
AcDbLine
 10
3.5082659271
 20
3.9389663992
 30
0.0
 11
3.5082659271
 21
4.1038501678
 31
0.0
  0
LINE
  5
71D
330
1F
100
AcDbEntity
  8
0
  6
Continuous
 62
     7
370
    30
100
AcDbLine
 10
3.5082659271
 20
3.9389663992
 30
0.0
 11
3.1632659126
 21
3.9389663992
 31
0.0
  0
LINE
  5
71E
330
1F
100
AcDbEntity
  8
0
  6
Continuous
 62
     7
370
    30
100
AcDbLine
 10
3.1632659126
 20
4.1038501678
 30
0.0
 11
3.1632659126
 21
3.9389663992
 31
0.0
  0
ARC
  5
71F
330
1F
100
AcDbEntity
  8
0
  6
Continuous
 62
     7
370
    30
100
AcDbCircle
 10
3.1832659797
 20
4.1038501707
 30
0.0
 40
0.0199999999999987
100
AcDbArc
 50
127.5815576187
 51
180.0
  0
ARC
  5
720
330
1F
100
AcDbEntity
  8
0
  6
Continuous
 62
     7
370
    30
100
AcDbCircle
 10
3.1277659797
 20
4.1759663963
 30
0.0
 40
0.0710000000000112
100
AcDbArc
 50
307.5815576188
 51
113.2698239585
  0
ARC
  5
721
330
1F
100
AcDbEntity
  8
0
  6
Continuous
 62
     7
370
    30
100
AcDbCircle
 10
3.0957659797
 20
4.250377417
 30
0.0
 40
0.0099999999999989
100
AcDbArc
 50
180.0
 51
293.2698239585
  0
LINE
  5
722
330
1F
100
AcDbEntity
  8
0
  6
Continuous
 62
     7
370
    30
100
AcDbLine
 10
3.0857659412
 20
4.25196639
 30
0.0
 11
3.0857659412
 21
4.2503774217
 31
0.0
  0
ARC
  5
723
330
1F
100
AcDbEntity
  8
0
  6
Continuous
 62
     7
370
    30
100
AcDbCircle
 10
3.1477659797
 20
4.2519663963
 30
0.0
 40
0.0620000000000003
100
AcDbArc
 50
90.0
 51
180.0
  0
ARC
  5
724
330
1F
100
AcDbEntity
  8
0
  6
Continuous
 62
     7
370
    30
100
AcDbCircle
 10
3.5237659797
 20
4.2519663963
 30
0.0
 40
0.0620000000000007
100
AcDbArc
 50
0.0
 51
90.0
  0
LINE
  5
725
330
1F
100
AcDbEntity
  8
0
  6
Continuous
 62
     8
370
    30
100
AcDbLine
 10
7.0857660396
 20
7.2154104027
 30
0.0
 11
6.9079330006
 21
7.2154104027
 31
0.0
  0
LINE
  5
726
330
1F
100
AcDbEntity
  8
0
  6
Continuous
 62
     8
370
    30
100
AcDbLine
 10
7.2635989319
 20
7.2154104027
 30
0.0
 11
7.0857660396
 21
7.2154104027
 31
0.0
  0
LINE
  5
727
330
1F
100
AcDbEntity
  8
0
  6
Continuous
 62
     8
370
    30
100
AcDbLine
 10
3.5135989589
 20
7.2154104027
 30
0.0
 11
3.1579330276
 21
7.2154104027
 31
0.0
  0
MTEXT
  5
729
330
1F
100
AcDbEntity
  8
FORMAT
100
AcDbMText
 10
4.299184929
 20
2.5611813908
 30
0.0
 40
0.125
 41
0.0
 71
     1
 72
     1
  1
ML 37, 4 SLOT, TYPE 3
  7
SLDTEXTSTYLE0
 73
     1
 44
1.0
  0
ENDSEC
  0
SECTION
  2
OBJECTS
  0
DICTIONARY
  5
C
330
0
100
AcDbDictionary
281
     1
  3
ACAD_GROUP
350
D
  3
ACAD_LAYOUT
350
1A
  3
ACAD_MLINESTYLE
350
17
  3
ACAD_PLOTSETTINGS
350
19
  3
ACAD_PLOTSTYLENAME
350
E
  3
ACAD_SCALELIST
350
47
  0
DICTIONARY
  5
D
102
{ACAD_REACTORS
330
C
102
}
330
C
100
AcDbDictionary
281
     1
  0
DICTIONARY
  5
1A
102
{ACAD_REACTORS
330
C
102
}
330
C
100
AcDbDictionary
281
     1
  3
Layout1
350
1E
  3
Layout2
350
26
  3
Model
350
22
  0
DICTIONARY
  5
17
102
{ACAD_REACTORS
330
C
102
}
330
C
100
AcDbDictionary
281
     1
  3
Standard
350
18
  0
DICTIONARY
  5
19
102
{ACAD_REACTORS
330
C
102
}
330
C
100
AcDbDictionary
281
     1
  0
ACDBDICTIONARYWDFLT
  5
E
102
{ACAD_REACTORS
330
C
102
}
330
C
100
AcDbDictionary
281
     1
  3
Normal
350
F
100
AcDbDictionaryWithDefault
340
F
  0
DICTIONARY
  5
47
102
{ACAD_REACTORS
330
C
102
}
330
C
100
AcDbDictionary
281
     1
  3
A0
350
48
  3
A1
350
49
  3
A2
350
4A
  3
A3
350
4B
  3
A4
350
4C
  3
A5
350
4D
  3
A6
350
4E
  3
A7
350
4F
  3
A8
350
50
  3
A9
350
51
  3
B0
350
52
  3
B1
350
53
  3
B2
350
54
  3
B3
350
55
  3
B4
350
56
  3
B5
350
57
  3
B6
350
58
  3
B7
350
59
  3
B8
350
5A
  3
B9
350
5B
  3
C0
350
5C
  3
C1
350
5D
  3
C2
350
5E
  3
C3
350
5F
  3
C4
350
60
  3
C5
350
61
  3
C6
350
62
  3
C7
350
63
  3
C8
350
64
  3
C9
350
65
  3
D0
350
66
  3
D1
350
67
  3
D2
350
68
  0
LAYOUT
  5
1E
102
{ACAD_REACTORS
330
1A
102
}
330
1A
100
AcDbPlotSettings
  1

  2
none_device
  4

  6

 40
0.0
 41
0.0
 42
0.0
 43
0.0
 44
0.0
 45
0.0
 46
0.0
 47
0.0
 48
0.0
 49
0.0
140
0.0
141
0.0
142
1.0
143
1.0
 70
   688
 72
     0
 73
     0
 74
     5
  7

 75
    16
147
1.0
148
0.0
149
0.0
100
AcDbLayout
  1
Layout1
 70
     1
 71
     1
 10
0.0
 20
0.0
 11
12.0
 21
9.0
 12
0.0
 22
0.0
 32
0.0
 14
1.0000000000E+20
 24
1.0000000000E+20
 34
1.0000000000E+20
 15
-1.0000000000E+20
 25
-1.0000000000E+20
 35
-1.0000000000E+20
146
0.0
 13
0.0
 23
0.0
 33
0.0
 16
1.0
 26
0.0
 36
0.0
 17
0.0
 27
1.0
 37
0.0
 76
     0
330
1B
  0
LAYOUT
  5
26
102
{ACAD_REACTORS
330
1A
102
}
330
1A
100
AcDbPlotSettings
  1

  2
none_device
  4

  6

 40
0.0
 41
0.0
 42
0.0
 43
0.0
 44
0.0
 45
0.0
 46
0.0
 47
0.0
 48
0.0
 49
0.0
140
0.0
141
0.0
142
1.0
143
1.0
 70
   688
 72
     0
 73
     0
 74
     5
  7

 75
    16
147
1.0
148
0.0
149
0.0
100
AcDbLayout
  1
Layout2
 70
     1
 71
     2
 10
0.0
 20
0.0
 11
0.0
 21
0.0
 12
0.0
 22
0.0
 32
0.0
 14
0.0
 24
0.0
 34
0.0
 15
0.0
 25
0.0
 35
0.0
146
0.0
 13
0.0
 23
0.0
 33
0.0
 16
1.0
 26
0.0
 36
0.0
 17
0.0
 27
1.0
 37
0.0
 76
     0
330
23
  0
LAYOUT
  5
22
102
{ACAD_REACTORS
330
1A
102
}
330
1A
100
AcDbPlotSettings
  1

  2
none_device
  4
Letter_(8.50_x_11.00_Inches)
  6

 40
6.35
 41
6.35
 42
6.35000508
 43
6.35000508
 44
215.9
 45
279.4
 46
0.0
 47
0.0
 48
0.0
 49
0.0
140
0.0
141
0.0
142
1.0
143
1.0
 70
  1712
 72
     0
 73
     0
 74
     0
  7

 75
     0
147
1.0
148
0.0
149
0.0
100
AcDbLayout
  1
Model
 70
     1
 71
     0
 10
0.0
 20
0.0
 11
11.0
 21
8.5
 12
0.0
 22
0.0
 32
0.0
 14
0.0
 24
0.0
 34
0.0
 15
11.0
 25
8.5
 35
0.0
146
0.0
 13
0.0
 23
0.0
 33
0.0
 16
1.0
 26
0.0
 36
0.0
 17
0.0
 27
1.0
 37
0.0
 76
     0
330
1F
331
29
  0
MLINESTYLE
  5
18
102
{ACAD_REACTORS
330
17
102
}
330
17
100
AcDbMlineStyle
  2
Standard
 70
     0
  3

 62
   256
 51
90.0
 52
90.0
 71
     2
 49
0.5
 62
   256
  6
BYLAYER
 49
-0.5
 62
   256
  6
BYLAYER
  0
ACDBPLACEHOLDER
  5
F
102
{ACAD_REACTORS
330
E
102
}
330
E
  0
SCALE
  5
48
102
{ACAD_REACTORS
330
47
102
}
330
47
100
AcDbScale
 70
     0
300
1:1
140
1.0
141
1.0
290
     1
  0
SCALE
  5
49
102
{ACAD_REACTORS
330
47
102
}
330
47
100
AcDbScale
 70
     0
300
1:2
140
1.0
141
2.0
290
     0
  0
SCALE
  5
4A
102
{ACAD_REACTORS
330
47
102
}
330
47
100
AcDbScale
 70
     0
300
1:4
140
1.0
141
4.0
290
     0
  0
SCALE
  5
4B
102
{ACAD_REACTORS
330
47
102
}
330
47
100
AcDbScale
 70
     0
300
1:5
140
1.0
141
5.0
290
     0
  0
SCALE
  5
4C
102
{ACAD_REACTORS
330
47
102
}
330
47
100
AcDbScale
 70
     0
300
1:8
140
1.0
141
8.0
290
     0
  0
SCALE
  5
4D
102
{ACAD_REACTORS
330
47
102
}
330
47
100
AcDbScale
 70
     0
300
1:10
140
1.0
141
10.0
290
     0
  0
SCALE
  5
4E
102
{ACAD_REACTORS
330
47
102
}
330
47
100
AcDbScale
 70
     0
300
1:16
140
1.0
141
16.0
290
     0
  0
SCALE
  5
4F
102
{ACAD_REACTORS
330
47
102
}
330
47
100
AcDbScale
 70
     0
300
1:20
140
1.0
141
20.0
290
     0
  0
SCALE
  5
50
102
{ACAD_REACTORS
330
47
102
}
330
47
100
AcDbScale
 70
     0
300
1:30
140
1.0
141
30.0
290
     0
  0
SCALE
  5
51
102
{ACAD_REACTORS
330
47
102
}
330
47
100
AcDbScale
 70
     0
300
1:40
140
1.0
141
40.0
290
     0
  0
SCALE
  5
52
102
{ACAD_REACTORS
330
47
102
}
330
47
100
AcDbScale
 70
     0
300
1:50
140
1.0
141
50.0
290
     0
  0
SCALE
  5
53
102
{ACAD_REACTORS
330
47
102
}
330
47
100
AcDbScale
 70
     0
300
1:100
140
1.0
141
100.0
290
     0
  0
SCALE
  5
54
102
{ACAD_REACTORS
330
47
102
}
330
47
100
AcDbScale
 70
     0
300
2:1
140
2.0
141
1.0
290
     0
  0
SCALE
  5
55
102
{ACAD_REACTORS
330
47
102
}
330
47
100
AcDbScale
 70
     0
300
4:1
140
4.0
141
1.0
290
     0
  0
SCALE
  5
56
102
{ACAD_REACTORS
330
47
102
}
330
47
100
AcDbScale
 70
     0
300
8:1
140
8.0
141
1.0
290
     0
  0
SCALE
  5
57
102
{ACAD_REACTORS
330
47
102
}
330
47
100
AcDbScale
 70
     0
300
10:1
140
10.0
141
1.0
290
     0
  0
SCALE
  5
58
102
{ACAD_REACTORS
330
47
102
}
330
47
100
AcDbScale
 70
     0
300
100:1
140
100.0
141
1.0
290
     0
  0
SCALE
  5
59
102
{ACAD_REACTORS
330
47
102
}
330
47
100
AcDbScale
 70
     0
300
1/128" = 1'-0"
140
0.0078125
141
12.0
290
     0
  0
SCALE
  5
5A
102
{ACAD_REACTORS
330
47
102
}
330
47
100
AcDbScale
 70
     0
300
1/64" = 1'-0"
140
0.015625
141
12.0
290
     0
  0
SCALE
  5
5B
102
{ACAD_REACTORS
330
47
102
}
330
47
100
AcDbScale
 70
     0
300
1/32" = 1'-0"
140
0.03125
141
12.0
290
     0
  0
SCALE
  5
5C
102
{ACAD_REACTORS
330
47
102
}
330
47
100
AcDbScale
 70
     0
300
1/16" = 1'-0"
140
0.0625
141
12.0
290
     0
  0
SCALE
  5
5D
102
{ACAD_REACTORS
330
47
102
}
330
47
100
AcDbScale
 70
     0
300
3/32" = 1'-0"
140
0.09375
141
12.0
290
     0
  0
SCALE
  5
5E
102
{ACAD_REACTORS
330
47
102
}
330
47
100
AcDbScale
 70
     0
300
1/8" = 1'-0"
140
0.125
141
12.0
290
     0
  0
SCALE
  5
5F
102
{ACAD_REACTORS
330
47
102
}
330
47
100
AcDbScale
 70
     0
300
3/16" = 1'-0"
140
0.1875
141
12.0
290
     0
  0
SCALE
  5
60
102
{ACAD_REACTORS
330
47
102
}
330
47
100
AcDbScale
 70
     0
300
1/4" = 1'-0"
140
0.25
141
12.0
290
     0
  0
SCALE
  5
61
102
{ACAD_REACTORS
330
47
102
}
330
47
100
AcDbScale
 70
     0
300
3/8" = 1'-0"
140
0.375
141
12.0
290
     0
  0
SCALE
  5
62
102
{ACAD_REACTORS
330
47
102
}
330
47
100
AcDbScale
 70
     0
300
1/2" = 1'-0"
140
0.5
141
12.0
290
     0
  0
SCALE
  5
63
102
{ACAD_REACTORS
330
47
102
}
330
47
100
AcDbScale
 70
     0
300
3/4" = 1'-0"
140
0.75
141
12.0
290
     0
  0
SCALE
  5
64
102
{ACAD_REACTORS
330
47
102
}
330
47
100
AcDbScale
 70
     0
300
1" = 1'-0"
140
1.0
141
12.0
290
     0
  0
SCALE
  5
65
102
{ACAD_REACTORS
330
47
102
}
330
47
100
AcDbScale
 70
     0
300
1-1/2" = 1'-0"
140
1.5
141
12.0
290
     0
  0
SCALE
  5
66
102
{ACAD_REACTORS
330
47
102
}
330
47
100
AcDbScale
 70
     0
300
3" = 1'-0"
140
3.0
141
12.0
290
     0
  0
SCALE
  5
67
102
{ACAD_REACTORS
330
47
102
}
330
47
100
AcDbScale
 70
     0
300
6" = 1'-0"
140
6.0
141
12.0
290
     0
  0
SCALE
  5
68
102
{ACAD_REACTORS
330
47
102
}
330
47
100
AcDbScale
 70
     0
300
1'-0" = 1'-0"
140
12.0
141
12.0
290
     0
  0
ENDSEC
  0
EOF
